Cifras e Tablaturas
Daniel Miranda

Daniel Miranda

Mulher Rendeira (viola Caipira)

Compositor : (Zé do Norte)

Cifras Cancelar Versão de Impressão
cifras

Daniel Miranda - Mulher Rendeira (viola Caipira)

fixar na tela  
Exibindo: vídeo-aula ver clipes redimensionar
  Viola Afinação: B - E - G# - B - e 
|-0----------------0--0------------------0------------------0--0-| 
|----4--2--0------------4--2--0--------------4--2--0-------------|             
|----3-----0------------3--------1--0--------3--3--0-------------| 
|----2-----0------------2--------2--0--------2-------------------| 
|----0--------0--0------0--------------0--------------0--0-------| 


|----------------------------------------------------------------| 
|--4--2--0-------------------------------------------------------|              
|--3--------1--0-------------------------------------------------| 
|--2--------2--0-------------------------------------------------| 
|----------------------------------------------------------------| 


|----------------------------------------------------------------| 
|----0--0--------------0--0--------------------------------------|              
|-0--------0-----1--0--------0--------------0--------------------| 
|-------------0-----------------0--0--0--0-----0--0-----2~--0--0-| 
|----------------------------------------------------2-----------| 


|----------------------------------------------------------------| 
|----0--0--------------------------------------------------------|              
|-0--------------------0---------------------0-------------------| 
|-------------0--0--0-----0--0------2--0--0-----0--0-----0-------| 
|----------2---------------------2--------------------2~---------| 




|------------------------------------------------------------------| 
|------------------------------------------------------------------|              
|-0--3--3--0-----1--1--0--2/3--3--0--------------0-----------------| 
|-0--4--4--0--0--2--2--0--3/4--4--0--0--0--0--0--0--0--0-----2--2--| 
|-------------0----------------------0--0--0--0-----0--0--2--2--2--| 


|------------------------------------------------------------------| 
|------------------------------------------------------------------|              
|-0-0----------------------0-----------------------0---------------| 
|-0-0--0--0--0----0--0--0--0--0--0-----2--2--0--0--0--0--0-----0---| 
|------0-------2--0--0--0-----0--0--2--2--2--0--0-----0--0--2--0---| 
  

top 5 | daniel miranda
top música clássica
Outras músicas do artista letras do(a) Daniel Miranda
Top cifras »Top artistas »
Petaxxon Comunicação Online
Cifras.com.br - Melhor e mais completo site de cifras e tablaturas do Brasil
Mais de 1 milhão de acordes de músicas cadastradas desde 2003
As informações contidas no nosso site são colaborações de seus usuários e podem conter erros, sendo assim, não nos responsabilizamos sobre nenhuma destas.
close
menos
mais
close
Cor dos acordes:

Cor da letra:

 

save
close
close
 
redimensionar