Cifras e Tablaturas
Daniela Araújo

Daniela Araújo

Entrega

Cifras Cancelar Versão de Impressão
cifras

Daniela Araújo - Entrega

fixar na tela  
Exibindo: vídeo-aula ver clipes redimensionar

Tom:

Em

ver outros tons
  
e|----------------------|-----------------------------| 
B|7h8p7h8---------------|9-9-9-11-10~--9-11-9-9-910~--| 
G|--------7-7-7-7-8~----|-----------------------------| 
D|----------------------|-----------------------------| 
A|----------------------|-----------------------------| 
E|----------------------|-----------------------------| 


-E mesmo estando no caminho... 


Eu posso me perder 


A ponto de nem perceber: 



e|-----------------------| 
B|9-9-9-9b-9-9-----------| 
G|-------------7-9~------| 
D|-----------------------| 
A|-----------------------| 
E|-----------------------| 



O bem que eu quero não faço 

O mal que não quero...        


e|-------------------| 
B|910--910~----------| 
G|-------------------| 
D|-------------------| 
A|-------------------| 
E|-------------------| 



 Faço e refaço...   


e|-------------------| 
B|-------------7-----| 
G|--7-9-9-910---9~~--| 
D|7------------------| 
A|-------------------| 
E|-------------------| 






Mas chega um dia em que a gente decide não insistir  


e|---------------------| 
B|---------------------| 
G|9-11---11-9----------| 
D|---------------------| 
A|---------------------| 
E|---------------------| 




nos mesmos erros... 


e|------------------------| 
B|------------------------| 
G|--7-9-7-9-7-9-7-9-911~--| 
D|7-----------------------| 
A|------------------------| 
E|------------------------| 



É quando a gente percebe  
Que o tempo não esperou... 


e|-----------------------| 
B|-----------------------| 
G|11b-11-9~--------------| 
D|-----------------------| 
A|-----------------------| 
E|-----------------------| 


Que o passado não se consertou. 



Quando eu esperei em alguém imperfeito 


e|-------------------------| 
B|10-9-10~-----------------| 
G|-------------------------| 
D|-------------------------| 
A|-------------------------| 
E|-------------------------| 


de presente eu ganhei um espelho.  


Agora lava- me, purifica- me.  
Sei que tudo quero eu quero está em ti... 




Eu me entrego, eu me entrego, eu me entrego... (REPETE DURANTE TODO O REFRÃO) 


e|--------------------------------------------------------------------------------------------------------------| 
B|19-19-19-19-17-17----------19-19-19-19-17-17----------20-20-20-20-17-17----------20-20-20-20-22-22-22-22--22~~| 
G|-------------------16--16---------------------16--16---------------------16--16-------------------------------| 
D|--------------------------------------------------------------------------------------------------------------| 
A|--------------------------------------------------------------------------------------------------------------| 
E|--------------------------------------------------------------------------------------------------------------| 

  
HARMÔNICO ARTIFICIAL (CASA 2, CORDA 5) NO FINAL DA EXECUÇÃO DO RIFF. 





(SEGUNDA PARTE) 



E mesmo estando no caminho, eu posso me juntar ao acusador... 


e|----------| 
B|----------| 
G|----------| 
D|7-7-7-7h9-| 
A|----------| 
E|----------| 




Fazendo de aparências minha religião.  


e|--------| 
B|--------| 
G|7-9-12~~| 
D|--------| 
A|--------| 
E|--------| 


Criando guerra em nome da razão. 




Vivendo de verdades incompletas, Em nome de um passado, de uma tradição. É quando a gente percebe que não estamos certos, que na verdade nós estamos cegos... 


e|---------------------------------------------------------|----------------| 
B|---------------------------------------------------------|----------------| 
G|---------------------------------------------------------|----------------| 
D|5-7-5-7-5-7-5-79---5-7-5-7-5-7-5-79---5-7-5-7-5-7-5-79---|5-7-9-11-13-14~~| 
A|---------------------------------------------------------|----------------| 
E|---------------------------------------------------------|----------------| 



Mas quando eu esperei em alguém perfeito... 


Eu vi o seu reflexo em mim, sem defeito 


e|12-10-5-7~~-| 
B|------------| 
G|------------| 
D|------------| 
A|------------| 
E|------------| 




Agora usa-me, vivifica-me 
Vem terminar a tua boa obra em mim... 





Eu me entrego, eu me entrego, eu me entrego... (2x REPETINDO ESSE RIFF) 

e|---------------------------------------------------------------------------------------------------------| 
B|19-19-19-19-17-17----------19-19-19-19-17-17-----------20-20-20-20-17-17---------20-20-20-20-22-22-22-22-| 
G|-------------------16--16---------------------16--16---------------------16--16--------------------------| 
D|---------------------------------------------------------------------------------------------------------| 
A|---------------------------------------------------------------------------------------------------------| 
E|---------------------------------------------------------------------------------------------------------| 



   

(FAZ APÓS TOCAR O RIFF ACIMA PELA SEGUNDA VEZ ): 


e|--------------------| 
B|20-20-20-20-19-19---| 
G|------------------16| 
D|--------------------| 
A|--------------------| 
E|--------------------| 




VARIAÇÃO:  (repete 7X e depois volta ao riff normal) 


e|------------19-19-20-| 
B|17-17-17-17----------| 
G|---------------------| 
D|---------------------| 
A|---------------------| 
E|---------------------| 






Eu quero me entregar, eu quero me entregar... 



Entrada LITO ATALAIA: 


e|15--15-17-14--14-15-12-| 
B|-----------------------| 
G|-----------------------| 
D|-----------------------| 
A|-----------------------| 
E|-----------------------| 
  

top 5 | daniela araújo
top gospel
Outras músicas do artista letras do(a) Daniela Araújo
Top cifras »Top artistas »
Petaxxon Comunicação Online
Cifras.com.br - Melhor e mais completo site de cifras e tablaturas do Brasil
Mais de 1 milhão de acordes de músicas cadastradas desde 2003
As informações contidas no nosso site são colaborações de seus usuários e podem conter erros, sendo assim, não nos responsabilizamos sobre nenhuma destas.
close
menos
mais
close
Cor dos acordes:

Cor da letra:

 

save
close
close
 
redimensionar