Cifras e Tablaturas
Dashboard Confessional

Dashboard Confessional

Just What To Say

Cifras Cancelar Versão de Impressão

Dashboard Confessional - Just What To Say

Tom:

  			Intro 

eb|-----------0--|----------0--|-----------0--|--------------| 
Bb|--------7-----|-------------|--------7-----|--9-----4-----| 
Gb|--------------|-------8-----|-----6--------|--------------| 
Db|-----6--------|----9--------|--7-----------|--------------| 
Ab|--7-----------|-11----------|--------------|--------------| 
Eb|--------------|-------------|--------------|--------------| 



Verse 

eb|-----------0--|----------0--|-----------0--|--------------| 
Bb|--------7-----|-------------|--------7-----|--------------| 
Gb|--------------|-------8-----|-----6--------|--------------| 
Db|-----6--------|----9--------|--7-----------|--------------| 
Ab|--7-----------|-11----------|--------------|--------------| 
Eb|--------------|-------------|--------------|--------------| 


Chorus 

eb|---------------|-------------|--------------|--------------| 
Bb|---------------|-------------|--------------|--------------| 
Gb|---------------|-------------|--------------|--------------| 
Db|--9------------|--7----------|--2-----------|--2-----------| 
Ab|--7------------|--7----------|--2-----------|--2-----------| 
Eb|--0------------|--5----------|--0-----------|--0-----------| 


Bridge 

eb|---------------|-------------|--------------|--------------| 
Bb|---------------|-------------|--------------|--------------| 
Gb|---------------|-------------|--------------|--9-----7-----| 
Db|--7------------|--2----------|--7-----------|--9-----7-----| 
Ab|--7------------|--2----------|--7-----------|--7-----5-----| 
Eb|--5------------|--0----------|--5-----------|--------------| 

eb|---------------|-------------|--------------|--------------| 
Bb|---------------|-------------|--------------|--------------| 
Gb|---------------|-------------|--4-----------|--4-----------| 
Db|--7------------|--2----------|--4-----------|--4-----------| 
Ab|--7------------|--2----------|--2-----------|--2-----------| 
Eb|--5------------|--0----------|--------------|--------------| 



************************************ 

| b  Bend 

************************************ 
    	
fixar
fixar inscrever-se

enviado porenviado por: jov-correa
cifra enviadaCorrigida por: sem correções
logo top cifrasComente
ico música do artistaMúsicas deste artista
ico curtiuCurtiu?
ico destaqueDestaque
Petaxxon Comunicação Online

Cifras.com.br - Melhor e mais completo site de cifras e tablaturas do Brasil Mais de 1 milhão de acordes de músicas cadastradas desde 2003
As informações contidas no nosso site são colaborações de seus usuários e podem conter erros, sendo assim, não nos responsabilizamos sobre nenhuma destas.

close
menos
mais
close
Cor dos acordes:

Cor da letra:

close
Alinhar acordes a direita Alinhar acordes a esquerda Alinhar acordes em baixo Alinhar acordes no topo
close
  Mostrar todos os acordes Esconder acordes muito fáceis Esconder acordes fáceis Esconder acordes intermediários
redimensionar
glossário