Cifras e Tablaturas
Daughter

Daughter

Dreams Of William

Cifras Cancelar Versão de Impressão
cifras

Daughter - Dreams Of William

fixar na tela  
Exibindo: vídeo-aula ver clipes redimensionar

Tom:

  
Intro 

e|---------------|-------------------|------------------|--------------------| 
B|---------------|-------------------|------------------|--------------------| 
G|---------------|-------------------|------------------|--------------------| 
D|---6-----10----|------8-----13-----|-----6-----10-----|-----13-----8-------| 
A|---4-----8-----|------6-----11-----|-----4-----8------|-----11-----6-------| 
E|---------------|-------------------|------------------|--------------------| 

e|---------------|-------------------|------------------|--------------------| 
B|---------------|-------------------|------------------|--------------------| 
G|---------------|-------------------|------------------|--------------------| 
D|---6-----10----|------8-----13-----|-----6-----10-----|-----13-----6-------| 
A|---4-----8-----|------6-----11-----|-----4-----8------|-----11-----4-------| 
E|---------------|-------------------|------------------|--------------------| 

e|---------------|-------------------|------------------|--------------------| 
B|---------------|-------------------|------------------|--------------------| 
G|---------------|-------------------|------------------|--------------------| 
D|---6-----10----|------8------13----|------15-----10---|-------13-----6-----| 
A|---4-----8-----|------6------11----|------13-----8----|-------11-----4-----| 
E|---------------|-------------------|------------------|--------------------| 

e|---------------|--------------|------------|----------|--------------------| 
B|---------------|--------------|------------|----------|--------------------| 
G|---------------|--------------|-----5------|----5-----|--------------------| 
D|---------------|--------------|------------|----------|--------------------| 
A|---8-----15----|------15------|------------|----3-----|-----8-----15-------| 
E|---6-----13----|------13------|-----4------|----------|-----6-----13-------| 

e|----------|------------|-----------------------------------------------------| 
B|----------|------------|-----------------------------------------------------| 
G|----------|------------|-----------------------------------------------------| 
D|----------|------------|-----------------------------------------------------| 
A|---15-----|-----15-----|-----15----------------------------------------------| 
E|---13-----|-----13-----|-----13----------------------------------------------| 

Distortion 

Guitar 1 

e|---------------------------------------------------------------------------| 
B|---------------------------------------------------------------------------| 
G|---------------------------------------------------------------------------| 
D|---------------------------------------------------------------------------| 
A|---6----------11---10---6----------11---10---6----------11---10------------| 
E|---------------------------------------------------------------------------| 

e|---------------------------------------------------------------------------| 
B|---------------------------------------------------------------------------| 
G|---------------------------------------------------------------------------| 
D|---------------------------------------------------------------------------| 
A|---6----------11---10------------------------------------------------------| 
E|---------------------------------------------------------------------------| 

Guitar 2 

(I can't really hear what they play here but it is something similiar to this) 
e|-------------------|-------------------------------------------------------| 
B|-------------------|-------------------------------------------------------| 
G|-------------------|-------------------------------------------------------| 
D|---6---5---6---5---|-6---5---6---5-----------------------------------------| 
A|-----6---6---6---6-|---6---6---6---6---------------------------------------| 
E|-------------------|-------------------------------------------------------| 

Back to clean 

e|---------------|-------------------|------------------|--------------------| 
B|---------------|-------------------|------------------|--------------------| 
G|---------------|-------------------|------------------|--------------------| 
D|---6-----10----|------8-----13-----|-----6-----10-----|-----13-----8-------| 
A|---4-----8-----|------6-----11-----|-----4-----8------|-----11-----6-------| 
E|---------------|-------------------|------------------|--------------------| 

e|---------------|-------------------|------------------|--------------------| 
B|---------------|-------------------|------------------|--------------------| 
G|---------------|-------------------|------------------|--------------------| 
D|---6-----10----|------8-----13-----|-----6-----10-----|-----13-----6-------| 
A|---4-----8-----|------6-----11-----|-----4-----8------|-----11-----4-------| 
E|---------------|-------------------|------------------|--------------------| 

e|---------------|-------------------|------------------|--------------------| 
B|---------------|-------------------|------------------|--------------------| 
G|---------------|-------------------|------------------|--------------------| 
D|---6-----10----|------8------13----|------15-----10---|-------13-----6-----| 
A|---4-----8-----|------6------11----|------13-----8----|-------11-----4-----| 
E|---------------|-------------------|------------------|--------------------| 

e|---------------|--------------|-----------|------------|-------------------| 
B|---------------|--------------|-----------|------------|-------------------| 
G|---------------|--------------|-----------|------------|-------------------| 
D|---------------|--------------|-----6-----|-----10-----|-----3-----6-------| 
A|---8-----15----|------15------|-----------|------------|-------------------| 
E|---6-----13----|------13------|-----4-----|-----8------|-----1-----4-------| 

e|----------|-----------|----------------------------------------------------| 
B|----------|-----------|----------------------------------------------------| 
G|----------|-----------|----------------------------------------------------| 
D|---10-----|-----6-----|-----10---------------------------------------------| 
A|----------|-----------|----------------------------------------------------| 
E|---8------|-----4-----|-----8----------------------------------------------| 
  

top 5 | daughter
top rock alternativo
Outras músicas do artista letras do(a) Daughter
5.
Run
Top cifras »Top artistas »
Petaxxon Comunicação Online
Cifras.com.br - Melhor e mais completo site de cifras e tablaturas do Brasil
Mais de 1 milhão de acordes de músicas cadastradas desde 2003
As informações contidas no nosso site são colaborações de seus usuários e podem conter erros, sendo assim, não nos responsabilizamos sobre nenhuma destas.
close
menos
mais
close
Cor dos acordes:

Cor da letra:

 

save
close
close
 
redimensionar