Cifras e Tablaturas
David Andre Østby

David Andre Østby

Strømmer Av Nåde

Cifras Cancelar Versão de Impressão
cifras

David Andre Østby - Strømmer Av Nåde

fixar na tela  
Exibindo: vídeo-aula ver clipes redimensionar
  
Intro 
First part 
e|------------------------------------------------------------------------------------------------| 
B|------------------------------------------------------------------------------------------------| 
G|------------------------------------------------------------------------------------------------| 
D|-12-(x4)---------------------12-(x4)--------------------12-(x4)---------------------------------| 
A|-----------13-(x4)-12-(x8)-----------13(x4)-15-(x8)-----------13-(x4)-12-(x8)-12-(x4)-13(x4)-1--|0(x8) 
E|------------------------------------------------------------------------------------------------| 

Second part 
e|------------------------------------------------------------------------------------------------| 
B|------------------------------------------------------------------------------------------------| 
G|------------------------------------------------------------------------------------------------| 
D|-12-(x4)--------------------12-(x4)--------------------12-(x4)----------------------------------| 
A|-----------13-(x4)-12-(x8)----------13-(x4)-15-(x8)----------13-(x4)-12-(x8)-8-(x4)-12-(x4)-10--|(x8) 
E|------------------------------------------------------------------------------------------------| 

Verse 
This section doesn't start until halfway through the verse. 
e|-----------------------------------------------------| 
B|-----------------------------------------------------| 
G|-----------------------------------------9-----------| 
D|-7------7------7--7-------9--9--11------7---7--------| 
A|-8--------10--------10--------------8------8---10----| 
E|--------------7----------7---------------------------| 

Chrous 1 
e|--------------------------------------------------------------------------------| 
B|--------------------------------------------------------------------------------| 
G|--------------------------------------------------------------------------------| 
D|----0--(x16)----0--(x16)----0--(x16)----0--(x8)----0--(x4)----0-----------------|(x4) 
A|----8--(x16)----8--(x16)----8--(x16)----8--(x8)----8--(x4)----8-----------------|(x4) 
E|---10--(x16)----8--(x16)----7--(x16)----5--(x8)----7--(x4)----8-----------------|(x4) 

e|-------------------------------------------------------| 
B|-------------------------------------------------------| 
G|-------------------------------------------------------| 
D|----0--(x16)----0--(x16)----0--(x16)----0--------------|(x8) 
A|----8--(x16)----8--(x16)----8--(x16)----8--------------|(x8) 
E|---10--(x16)----8--(x16)----7--(x16)----5--------------|(x8) 

(The interlude between the first Chorus and the second verse = first part of the intro) 

verse 2 = Vers 1 

Chrous 2 
The second time, they play the Chorus twice, so that's why you play this tab four times. 
e|--------------------------------------------------------------------------------| 
B|--------------------------------------------------------------------------------| 
G|--------------------------------------------------------------------------------| 
D|----0--(x16)----0--(x16)----0--(x16)----0--(x8)----0--(x4)----0-----------------|(x8) 
A|----8--(x16)----8--(x16)----8--(x16)----8--(x8)----8--(x4)----8-----------------|(x8) 
E|---10--(x16)----8--(x16)----7--(x16)----5--(x8)----7--(x4)----8-----------------|(x8) 
x4 

Bridge 
This is the melody the keybard plays. The keyboard plays this alone with a pad in the background. 
The third time a violin sounding pad joins in. The vocal og drums joins in the 5. time and 
I'm pretty sure the guitar joins in the 10. time. 
e|---------------------------------------------------------| 
B|---------------------------------------------------------| 
G|---------------------------------------------------------| 
D|---------------------------------------------------------| 
A|---8------------8------------8---------10--8--10---------| 
E|-|8---8--10--8---7--10--7----7--10--------------10-------| 
  

top 5 | david andre østby
top rock'n roll
Outras músicas do artista letras do(a) David Andre Østby
Top cifras »Top artistas »
Petaxxon Comunicação Online
Cifras.com.br - Melhor e mais completo site de cifras e tablaturas do Brasil
Mais de 1 milhão de acordes de músicas cadastradas desde 2003
As informações contidas no nosso site são colaborações de seus usuários e podem conter erros, sendo assim, não nos responsabilizamos sobre nenhuma destas.
close
menos
mais
close
Cor dos acordes:

Cor da letra:

 

save
close
close
 
redimensionar