Cifras e Tablaturas
Days of The New

Days of The New

Dope Road

Cifras Cancelar Versão de Impressão

Days of The New - Dope Road

Tom: E

  			Intro: 

D |---------------------------------0----------------------------------------------------------------| 
B |-------0-------------------------------0-------------------------0--------------------------------| 
F#|---------0---0---------------------0-----------------------0---0---------------------0------------| 
D |-----------0-------------------------0-----------------------0-------------------------0----------| 
A |--------------------------------------------------------------------------------------------------| 
E |---5/7----------5-7-7\--0-0-5--7----------5-7-7\--0-0-5--7----------5-7-7\--0-0-5--7------7-5-0---| 


Verse: 

D |-------------------------------0---------------------------------------------------------------------------| 
B |-----------0-------------------------0-------------------------0-------------------------0-----------------| 
F#|-------0-------------------------0-----------------------0---0---------------------0---0-------------------| 
D |-----0---0-------------------------0-----------------------0-------------------------0---------------------| 
A |-----------------------------------------------------------------------------------------------------------| 
E |---7----------5-7-7\--0-0-5--7----------5-7-7\--0-0-5--7----------5-7-7\--0-0-5--7----------5-7-7\--0-0-5--| 


Pre-Chorus 

D |------------------------------------------2-----0-2p0-0-0-0-2---| 
B |--------------------------------------------3---3-3---3-3-3-3---| 
F#|---------0----------------------0-------------0-0-0---0-0-0-0---| 
D |-----0---------0------------0-------------------0-0---0-0-0-0---| 
A |------------------------------------------------x-x---x-x-x-x---| 
E |---7---7---5-7---5-7-5-7--7---7---5-7-5-2-------3-3---3-3-3-3---| 

D |------------------------------------------2-----0-2p0-0-0-0-2---| 
B |--------------------------------------------3---3-3---3-3-3-3---| 
F#|---------0----------------------0-------------0-0-0---0-0-0-0---| 
D |-----0---------------------0--------------------0-0---0-0-0-0---| 
A |------------------------------------------------x-x---x-x-x-x---| 
E |---7---7---5-7-7\-0-0-5--7---7----5-7-5-2-------3-3---3-3-3-3---| 


Chorus: 

D |---0-7-7-7-x-x-x-0-2p0-0-0-0-0-0-x-0-9-7-7-x-x-x-0-2p0-0-0-0-0---0-----| 
B |---7-7-7-7-8-7-5-3-3---3-3-3-3-3-5-7-7-7-7-8-7-5-3-3---0-2-0-2p0-2p0---| 
F#|---0-0-0-0-0-0-0-0-0---0-0-0-0-0-0-0-0-0-0-0-0-0-0-0---3-3-3-3---3-----| 
D |---0-0-0-0-0-0-0-0-0---0-0-0-0-0-0-0-0-0-0-0-0-0-0-0---0-0-0-0---0-----| 
A |---x-x-x-x-x-x-x-x-x---x-x-x-x-x-x-x-x-x-x-x-x-x-x-x---x-x-x-x---x-----| 
E |---7-7-7-7-7-7-5-3-3---3-3-3-3-3-5-7-7-7-7-7-7-5-3-3---3-3-3-3---3-----| 

D |---0-9-7-7-x-x-x-0-2p0-0-0-0-0-0-x-0-9-7-7-x-x-x-0--0-------------------------| 
B |---7-7-7-7-8-7-5-3-3---3-3-3-3-3-5-7-7-7-7-8-7-5-3--0--0---0-3-3--3-3---------| 
F#|---0-0-0-0-0-0-0-0-0---0-0-0-0-0-0-0-0-0-0-0-0-0-0--3----3---0-0--0-0---------| 
D |---0-0-0-0-0-0-0-0-0---0-0-0-0-0-0-0-0-0-0-0-0-0-0--0--------0-0--0-0---------| 
A |---x-x-x-x-x-x-x-x-x---x-x-x-x-x-x-x-x-x-x-x-x-x-x--x--------x-x--x-x---------| 
E |---7-7-7-7-7-7-5-3-3---3-3-3-3-3-5-7-7-7-7-7-7-5-3--3-------------------5-6---| 


Verse: 

D |-----------------------------------------------------------------------------------------------------------| 
B |-----0-------------------------0-------------------------------0-------------------------0-----------------| 
F#|-------0---0---------------------0---0-------------------0---0---------------------0---0-------------------| 
D |---------0-------------------------0-----------------------0-------------------------0---------------------| 
A |-----------------------------------------------------------------------------------------------------------| 
E |---7----------5-7-7\--0-0-5--7----------5-7-7\--0-0-5--7----------5-7-7\--0-0-5--7----------5-7-7\--0-0-5--| 

D |-----------------------------------------------------------------------------------------------------------| 
B |-----------0-------------------------0-------------------------0-------------------------0-----------------| 
F#|-----0---0---------------------0---0---------------------0---0---------------------0---0-------------------| 
D |-------0-------------------------0-------------------------0-------------------------0---------------------| 
A |-----------------------------------------------------------------------------------------------------------| 
E |---7----------5-7-7\--0-0-5--7----------5-7-7\--0-0-5--7----------5-7-7\--0-0-5--7----------5-7-7\--0-0-5--| 


Pre-Chorus 

D |------------------------------------------2-----0-2p0-0-0-0-2---| 
B |--------------------------------------------3---3-3---3-3-3-3---| 
F#|---------0----------------------0-------------0-0-0---0-0-0-0---| 
D |-----0---------0------------0-------------------0-0---0-0-0-0---| 
A |------------------------------------------------x-x---x-x-x-x---| 
E |---7---7---5-7---5-7-5-7--7---7---5-7-5-2-------3-3---3-3-3-3---| 

D |------------------------------------------2-----0-2p0-0-0-0-2---| 
B |--------------------------------------------3---3-3---3-3-3-3---| 
F#|---------0----------------------0-------------0-0-0---0-0-0-0---| 
D |-----0---------------------0--------------------0-0---0-0-0-0---| 
A |------------------------------------------------x-x---x-x-x-x---| 
E |---7---7---5-7-7\-0-0-5--7---7----5-7-5-2-------3-3---3-3-3-3---| 


Chorus: 

D |---0-7-7-7-x-x-x-0-2p0-0-0-0-0-0-x-0-9-7-7-x-x-x-0-2p0-0-0-0-0---0-----| 
B |---7-7-7-7-8-7-5-3-3---3-3-3-3-3-5-7-7-7-7-8-7-5-3-3---0-2-0-2p0-2p0---| 
F#|---0-0-0-0-0-0-0-0-0---0-0-0-0-0-0-0-0-0-0-0-0-0-0-0---3-3-3-3---3-----| 
D |---0-0-0-0-0-0-0-0-0---0-0-0-0-0-0-0-0-0-0-0-0-0-0-0---0-0-0-0---0-----| 
A |---x-x-x-x-x-x-x-x-x---x-x-x-x-x-x-x-x-x-x-x-x-x-x-x---x-x-x-x---x-----| 
E |---7-7-7-7-7-7-5-3-3---3-3-3-3-3-5-7-7-7-7-7-7-5-3-3---3-3-3-3---3-----| 

D |---0-9-7-7-x-x-x-0-2p0-0-0-0-0-0-x-0-9-7-7-x-x-x-0--0-------------------------| 
B |---7-7-7-7-8-7-5-3-3---3-3-3-3-3-5-7-7-7-7-8-7-5-3--0--0---0-3-3--3-3---------| 
F#|---0-0-0-0-0-0-0-0-0---0-0-0-0-0-0-0-0-0-0-0-0-0-0--3----3---0-0--0-0---------| 
D |---0-0-0-0-0-0-0-0-0---0-0-0-0-0-0-0-0-0-0-0-0-0-0--0--------0-0--0-0---------| 
A |---x-x-x-x-x-x-x-x-x---x-x-x-x-x-x-x-x-x-x-x-x-x-x--x--------x-x--x-x---------| 
E |---7-7-7-7-7-7-5-3-3---3-3-3-3-3-5-7-7-7-7-7-7-5-3--3-------------------5-3---| 


Bridge: 

D |----------------------------------------------------| 
B |------------------------------------------3-3-0-0---| 
F#|---2-3-5-5-5-5--2-3-5-5-3h5p3-0--2-3-5-5--0-0-3-3---| 
D |---0-0-0-0-0-0--0-0-0-0----------0-0-0-0--0-0-0-0---| 
A |---2-2-2-2-2-2--2-2-2-2----------2-2-5-5--x-x-x-x---| 
E |------------------------------------------3-3-3-3---| 

D |---0-7-7-7-x-x-x-0-2p0-0-0-0-0-0-x-0-9-7-7-x-x-x-0-2p0-0-0-0-0---0-----| 
B |---7-7-7-7-8-7-5-3-3---3-3-3-3-3-5-7-7-7-7-8-7-5-3-3---0-2-0-2p0-2p0---| 
F#|---0-0-0-0-0-0-0-0-0---0-0-0-0-0-0-0-0-0-0-0-0-0-0-0---3-3-3-3---3-----| 
D |---0-0-0-0-0-0-0-0-0---0-0-0-0-0-0-0-0-0-0-0-0-0-0-0---0-0-0-0---0-----| 
A |---x-x-x-x-x-x-x-x-x---x-x-x-x-x-x-x-x-x-x-x-x-x-x-x---x-x-x-x---x-----| 
E |---7-7-7-7-7-7-5-3-3---3-3-3-3-3-5-7-7-7-7-7-7-5-3-3---3-3-3-3---3-----| 

D |---0-9-7-7-x-x-x-0-2p0-0-0-0-0-0-x-0-9-7-7-x-x-x-0--0--0-0---| 
B |---7-7-7-7-8-7-5-3-3---3-3-3-3-3-5-7-7-7-7-8-7-5-3--0--0-0---| 
F#|---0-0-0-0-0-0-0-0-0---0-0-0-0-0-0-0-0-0-0-0-0-0-0--3--3-3---| 
D |---0-0-0-0-0-0-0-0-0---0-0-0-0-0-0-0-0-0-0-0-0-0-0--0--0-0---| 
A |---x-x-x-x-x-x-x-x-x---x-x-x-x-x-x-x-x-x-x-x-x-x-x--x--x-x---| 
E |---7-7-7-7-7-7-5-3-3---3-3-3-3-3-5-7-7-7-7-7-7-5-3--3--3-3---| 

D |-----------| 
B |-----------| 
F#|-----------|   x14 
D |-----------| 
A |-----------| 
E |---5-5-7---| 

D |-------------| 
B |-------------| 
F#|-------------|   x6 
D |-------------| 
A |---------5---| 
E |---5-5-7-----| 


Chorus: 

D |---0-7-7-7-x-x-x-0-2p0-0-0-0-0-0-x-0-9-7-7-x-x-x-0-2p0-0-0-0-0---0-----| 
B |---7-7-7-7-8-7-5-3-3---3-3-3-3-3-5-7-7-7-7-8-7-5-3-3---0-2-0-2p0-2p0---| 
F#|---0-0-0-0-0-0-0-0-0---0-0-0-0-0-0-0-0-0-0-0-0-0-0-0---3-3-3-3---3-----| 
D |---0-0-0-0-0-0-0-0-0---0-0-0-0-0-0-0-0-0-0-0-0-0-0-0---0-0-0-0---0-----| 
A |---x-x-x-x-x-x-x-x-x---x-x-x-x-x-x-x-x-x-x-x-x-x-x-x---x-x-x-x---x-----| 
E |---7-7-7-7-7-7-5-3-3---3-3-3-3-3-5-7-7-7-7-7-7-5-3-3---3-3-3-3---3-----| 

D |---0-9-7-7-x-x-x-0-2p0-0-0-0-0-0-x-0-9-7-7-x-x-x-0--0-0-0-0-------------------------| 
B |---7-7-7-7-8-7-5-3-3---3-3-3-3-3-5-7-7-7-7-8-7-5-3--0-0-0-0--0---0-3-3--3-3---------| 
F#|---0-0-0-0-0-0-0-0-0---0-0-0-0-0-0-0-0-0-0-0-0-0-0--3-3-3-3----3---0-0--0-0---------| 
D |---0-0-0-0-0-0-0-0-0---0-0-0-0-0-0-0-0-0-0-0-0-0-0--0-0-0-0--------0-0--0-0---------| 
A |---x-x-x-x-x-x-x-x-x---x-x-x-x-x-x-x-x-x-x-x-x-x-x--x-x-x-x--------x-x--x-x---------| 
E |---7-7-7-7-7-7-5-3-3---3-3-3-3-3-5-7-7-7-7-7-7-5-3--3-3-3-3-------------------5-6---| 


Outro: 

D |-------0-------------------------------------------------------| 
B |---------0-----------------------------------------------------| 
F#|-----------0---0-------0---0-------0-----------0---------------|   x6 
D |-----------------0---0---------0-----0-----------0-------------| 
A |-------------5-----------5-------------0-5-------------5h7p5---| 
E |---7-7-------------5---------5---3---------3/5-----7-7---------| 


 
    	
fixar
fixar inscrever-se

enviado porenviado por: jessgomes
cifra enviadaCorrigida por: sem correções
logo top cifrasComente
ico música do artistaMúsicas deste artista
ico curtiuCurtiu?
ico destaqueDestaque
Petaxxon Comunicação Online

Cifras.com.br - Melhor e mais completo site de cifras e tablaturas do Brasil Mais de 1 milhão de acordes de músicas cadastradas desde 2003
As informações contidas no nosso site são colaborações de seus usuários e podem conter erros, sendo assim, não nos responsabilizamos sobre nenhuma destas.

close
menos
mais
close
Cor dos acordes:

Cor da letra:

close
Alinhar acordes a direita Alinhar acordes a esquerda Alinhar acordes em baixo Alinhar acordes no topo
close
  Mostrar todos os acordes Esconder acordes muito fáceis Esconder acordes fáceis Esconder acordes intermediários
redimensionar
glossário