Cifras e Tablaturas
DC Talk

DC Talk

Colored People (ver. 2) Tablatura

Cifras Cancelar Versão de Impressão
cifras

DC Talk - Colored People (ver. 2)

fixar na tela  
Exibindo: vídeo-aula ver clipes redimensionar

Tom:

  Legend: 
------- 
x       frethand mute 
pm      palm mute 
b       bend  (ex.  4b(half)r(4)  {bend up half step and release down to 
4}) 
r       release 
h       hammer on 
p       pull off 
~       vibrato 
/       slide up  (ex.  4/6  {pick 4, slide into 6, then pick 6} 
             (ex.  4/(6)  {pick 4, slide into 6; don't pick 6--ghost 
note}) 
\       slide down  (see "slide up" ex. above) 
^^      tremolo 
nh      natural harmonic 
ah      artificial harmonic 
(note)  ghost note  (ex.  (4)  {not struck but sounded}) 
ps      pick scrape  {scrape (slide) side of pick along specified 
string}                                                    
---------------------------------------------------------------------------- 
Tuning:  (Standard)   
 
(1)=E     (4)=D             
(2)=B     (5)=A          
(3)=G     (6)=E        
{Intro & Chorus} 
 
   (electic guitar w/ dist.) 
   (w/ pick & fingers) 
E|-------------------------------------------------------------------------- 
B|--7-----7----7------10--7--------7---------------------------------------- 
G|--7-----7----7-------7--7--------7h9------9-----9/(11)\(7)-----7---7/(9)-- 
D|-----0-----0------0----------0--------7---7---7-7/(9)\(5)-5---5---------- 
A|-------------------------------------------------------------------------- 
E|-------------------------------------------------------------------------- 
 
E|--------------------------------------------------------------------- 
B|--7-----7----7------10--7--------7----------------------------------- 
G|--7-----7----7-------7--7--------7h9------9-----7-------7-----7/(9)-- 
D|-----0-----0------0----------0--------7---7---7\5----5--5------------ 
A|--------------------------------------------------------------------- 
E|--------------------------------------------------------------------- 
 
 
{Interlude} 
D               A       G       D               A       G        
1...1...1...1...2...2...2...2...3...3...3...3...4...4...4...4... 
 
 
{Verse 1 (clean guitar)} 
Bm Gadd9 Em7 
Bm Gadd9 Em7 G A 
Bm Gadd9 Em7 
Bm Gadd9 Em7 
 
{Pre-Chorus} 
Cadd9 G A 
 
 
{Chorus} 
D A G 
D A G 
D A G 
D A G 
 
{Interlude} 
A7             D/F#             A7             D/F#        
1...1...1...1...2...2...2...2...3...3...3...3...4...4...4...4... 
 
 
{Verse 2} 
Bm Gadd9 Em7 
Bm Gadd9 Em7 G A 
Bm Gadd9 Em7 
Bm Gadd9 Em7 
 
{Pre-Chorus} 
Cadd9 G A 
 
{Chorus} 
D A G 
D A G 
D A G 
D A G 
 
{Bridge} 
Bm F#5 
Bm F#5 
Bm F#5 
Em C A 
 
 
{Interlude} 
D               A       G       D               A       G        
1...1...1...1...2...2...2...2...3...3...3...3...4...4...4...4... 
 
D A G 
D A G 
 
{Chorus} (Repeat and Fade) 
 

  

cifra enviadasem correções
enviado porenviada por:JoFaNaN
top 5 | dc talk
top gospel
Outras músicas do artista letras do(a) DC Talk
Top cifras »Top artistas »
Petaxxon Comunicação Online
Cifras.com.br - Melhor e mais completo site de cifras e tablaturas do Brasil
Mais de 1 milhão de acordes de músicas cadastradas desde 2003
As informações contidas no nosso site são colaborações de seus usuários e podem conter erros, sendo assim, não nos responsabilizamos sobre nenhuma destas.
close
menos
mais
close
Cor dos acordes:

Cor da letra:

 

save
close
close
 
redimensionar