Cifras e Tablaturas
DC Talk

DC Talk

Supernatral Tablatura

Cifras Cancelar Versão de Impressão
cifras

DC Talk - Supernatral

fixar na tela  
Exibindo: vídeo-aula ver clipes redimensionar

Tom:

  
 Tabbed by:jeremy hernalsteen 
 Email:jrmy685@yahoo.com 
 Tuning: standard 
 
intro:/for bass 
--------------------------------------------- 
--------------------------------------------- 
--------------------------------------------- 
------0-0-0--7-7-7-7--8-8-8-8--0-0-0-0------- 
 
riff 1: 
--------------------------------------------- 
--------------------------------------------- 
----------12-12-12--7-7-7-------------------- 
----------12-12-12--7-7-7--7-7-7------------- 
----------10-10-10--5-5-5--7-7-7------------- 
---------------------------5-5-5------------- 
 
riff 2: 
------------------------------------------------------------------------- 
------------------------------------------------------------------------- 
------------------------------------------------------------------------- 
----8-8-7-3-3-3-2-2--2-8-8-7-2-2-8-8-3-3-2-2--2-8-8-7-10-10-8-8-7--2-2--- 
----8-8-7-3-3-3-2-2--2-8-8-7-2-2-8-8-3-3-2-2--2-8-8-7-10-10-8-8-7--2-2--- 
----6-6-5-1-1-1-0-0--0-6-6-5-0-0-6-6-1-1-0-0--0-6-6-5--8--8-6-6-5--0-0--- 
 
riff 3:/for bass and guitar(with maximum distortion) 
------------------------------------- 
------------------------------------- 
------------------------------------- 
------------------------------------- 
-------12-12-12--7-7-7--3-3-3-------- 
-------12-12-12--7-7-7--3-3-3-------- 
 
guitar solo: 
-----9h10-9p7---9h10-9p7---9h10-9p7---14h15---14h15---14h15------- 
------------------------------------------------------------------ 
------------------------------------------------------------------ 
------------------------------------------------------------------ 
------------------------------------------------------------------ 
------------------------------------------------------------------ 
 
outro: 
-------------------------- 
-------------------------- 
-------------------------- 
------8-8--7-7--2-2------- 
------8-8--7-7--2-2------- 
------6-6--5-5--0-0------- 
 

  

top 5 | dc talk
top gospel
Outras músicas do artista letras do(a) DC Talk
Top cifras »Top artistas »
Petaxxon Comunicação Online
Cifras.com.br - Melhor e mais completo site de cifras e tablaturas do Brasil
Mais de 1 milhão de acordes de músicas cadastradas desde 2003
As informações contidas no nosso site são colaborações de seus usuários e podem conter erros, sendo assim, não nos responsabilizamos sobre nenhuma destas.
close
menos
mais
close
Cor dos acordes:

Cor da letra:

 

save
close
close
 
redimensionar