Cifras e Tablaturas
Dead Weather

Dead Weather

I Can't Hear You

Cifras Cancelar Versão de Impressão Print

Dead Weather - I Can't Hear You

Tom:

  • 0:00 / 0:00
  			

Hello! I love this song so I'm going to tab the way I play it, I took some parts of  
other tabs so thank to the 
autors of these tabs, and sorry for my bad english. Maybe this would pretty  
inaccurate... xD 
I'm going to tab Jack's and Dean's parts, so listen to the song and you wouldd be able  
to figure out the 
timming and sh*t, and this is my first tab so sorry if this is a little bit messy :v 


Jack plays this riff in live 
e|-------------------3-1--------------------------------| 
B|---------1-3-----1-----3-1----------------------------| 
G|---0-0-3-----0-3-----------3--------------------------| 
D|------------------------------------------------------| 
A|------------------------------------------------------| 
E|------------------------------------------------------| 

or this: 
e|---------------------3-1------------------------------| 
B|---------1-3-----1h3-----3-1--------------------------| 
G|---0-0-3-----0-3-------------3------------------------| 
D|------------------------------------------------------| 
A|------------------------------------------------------| 
E|------------------------------------------------------| 

I play this too: 
(I don't know why i'm tabbing the same riff but...) 
e|----------------------------15-13---------------------| 
B|-------------13-15-------13-------15-13---------------| 
G|---12-12--15-------12-15----------------15------------| 
D|------------------------------------------------------| 
A|------------------------------------------------------| 
E|------------------------------------------------------| 

e|----------------------5-3-----------------------------| 
B|-----------3-------3------5-3-------------------------| 
G|---0-0-3-5---0-3-5------------5-----------------------| 
D|------------------------------------------------------| 
A|------------------------------------------------------| 
E|------------------------------------------------------| 

Main Riff 

e|------------------------------------------------------| 
B|------------------------------------------------------| 
G|------------------------------------------------------| 
D|----------------------5-3-----------------------------| 
A|---------3-5-----3--------5-3-------------------------| 
E|---3-3-6-----3-6--------------6~----------------------| 

Jack's parts starts playing at: 

-0:36 

e|---6-9-8-6------------6-8-9-6-------------------------| 
B|-----------8------------------8-----------------------| 
G|---------------0h3------------------------------------| 
D|------------------------------------------------------| 
A|------------------------------------------------------| 
E|------------------------------------------------------| 


e|----9b-------6-3---3-3-1-3---3-3-1-3------------------| 
B|------------------------------------------------------| 
G|------------------------------------------------------| 
D|----------------------------------------3-x-x-3-------| 
A|------------------------------------------------------| 
E|------------------------------------------------------| 

e|---6-3---3-3-1-3---6-9-8-6-----6-9-8-6----------------| 
B|---------------------------8-----------8--------------| 
G|------------------------------------------------------| 
D|------------------------------------------------------| 
A|------------------------------------------------------| 
E|------------------------------------------------------| 

-1:27 

e|---6-9-8-6------------6-8-9-6------6-3---3-3-1-3------| 
B|-----------8------------------8-----------------------| 
G|------------------------------------------------------| 
D|------------------------------------------------------| 
A|------------------------------------------------------| 
E|------------------------------------------------------| 

e|---9p8---3-3-1-3---6-3---3-3-1-3------1-3-1-----------| 
B|--------------------------------------------3---------| 
G|------------------------------------------------------| 
D|------------------------------------------------------| 
A|------------------------------------------------------| 
E|------------------------------------------------------| 

-1:49 

e|---9b-----------9b-----6-9-8-6-----6-3---3-3-1-3------| 
B|-------------------------------8----------------------| 
G|------------------------------------------------------| 
D|------------------------------------------------------| 
A|------------------------------------------------------| 
E|------------------------------------------------------| 

e|---6-9-8-6----3-3-1-3---6-9-8-6----6-3--3-3-1-3-------| 
B|-----------8--------------------8---------------------| 
G|------------------------------------------------------| 
D|------------------------------------------------------| 
A|------------------------------------------------------| 
E|------------------------------------------------------| 

e|---1-3-1------21b---20b---21b---20b---6-3--3-3-1-3----| 
B|---------3--------------------------------------------| 
G|------------------------------------------------------| 
D|------------------------------------------------------| 
A|------------------------------------------------------| 
E|------------------------------------------------------| 

e|---21b---20b---21b---20b---6-3---3-3-1-3----1-3-1-----| 
B|--------------------------------------------------3---| 
G|------------------------------------------------------| 
D|------------------------------------------------------| 
A|------------------------------------------------------| 
E|------------------------------------------------------| 

-2:34 (I'm not sure about this part) 

e|---20b---20p19b---------------------------------------| 
B|---------------19h20p19-------------------------------| 
G|------------------------------------------------------| 
D|------------------------------------------------------| 
A|------------------------------------------------------| 
E|------------------------------------------------------| 

-3:04 (and this part too) 

e|---20b---21b---20b---20b---20b---20b---20b---20b------| 
B|------------------------------------------------------| 
G|------------------------------------------------------| 
D|------------------------------------------------------| 
A|------------------------------------------------------| 
E|------------------------------------------------------| 

e|---18-15---15-15-13-15---13-15-13---------------------| 
B|------------------------------------------------------| 
G|----------------------------------15------------------| 
D|------------------------------------------------------| 
A|------------------------------------------------------| 
E|------------------------------------------------------| 

e|---15-15-13-15---13-15---18-15---15-15-13-15----------| 
B|------------------------------------------------------| 
G|------------------------------------------------------| 
D|------------------------------------------------------| 
A|------------------------------------------------------| 
E|------------------------------------------------------| 

e|---15-15-13-15---18-15---15-15-13-15---13-15-13-------| 
B|------------------------------------------------------| 
G|------------------------------------------------15-12-| 
D|------------------------------------------------------| 
A|------------------------------------------------------| 
E|------------------------------------------------------| 


Dean's parts: 

e|------------------------------------------------------| 
B|------------------------------------------------------| 
G|------------------------------------------------------| x6 
D|----------------------5-3-----------------------------| 
A|---------3-5-----3--------5-3-------------------------| 
E|---3-3-6-----3-6---3----------6~----------------------| 

e|------------------------------------------------------| 
B|------------------------------------------------------| 
G|---3--------------------------3-----------------------| 
D|-----5---5-5-3-5---5-5-3-5------5---5-5-3-5---5-------| 
A|------------------------------------------------5-----| 
E|--------------------------------------------------3---| 

e|------------------------------------------------------| 
B|------------------------------------------------------| 
G|------------------------------------------------------| x4 
D|----------------------5-3-----------------------------| 
A|---------3-5-----3--------5-3-------------------------| 
E|---3-3-6-----3-6---3----------6~----------------------| 

e|------------------------------------------------------| 
B|------------------------------------------------------| 
G|---3--------------------------3-----------------------| 
D|-----5---5-5-3-5---5-5-3-5------5---5-5-3-5---5-------| 
A|------------------------------------------------5-----| 
E|--------------------------------------------------3---| 

e|------------------------------------------------------| 
B|------------------------------------------------------| 
G|------------------------------------------------------| x4 
D|----------------------5-3-----------------------------| 
A|---------3-5-----3--------5-3-------------------------| 
E|---3-3-6-----3-6---3----------6~----------------------| 

e|------------------------------------------------------| 
B|------------------------------------------------------| 
G|---3--------------------------3-----------------------| x2 
D|-----5---5-5-3-5---5-5-3-5------5---5-5-3-5---5-------| 
A|------------------------------------------------5-----| 
E|--------------------------------------------------3---| 

e|------------------------------------------------------| 
B|------------------------------------------------------| 
G|------------------------------------------------------| x4 
D|----------------------5-3-----------------------------| 
A|---------3-5-----3--------5-3-------------------------| 
E|---3-3-6-----3-6---3----------6~----------------------| 

e|------------------------------------------------------| 
B|------------------------------------------------------| 
G|---3--------------------------3-----------------------| 
D|-----5---5-5-3-5---5-5-3-5------5---5-5-3-5--5-3------| 
A|-------------------------------------------------5-3--| 
E|------------------------------------------------------| 

e|------------------------------------------------------| 
B|------------------------------------------------------| 
G|-------------3----------------------------------------| 
D|---5-5-3-5-----5---5-5-3-5---5-5-3-5------------------| 
A|------------------------------------------------------| 
E|------------------------------------------------------| 

e|------------------------------------------------------| 
B|------------------------------------------------------| 
G|----3-------------------------------------------------| 
D|------5---5-5-3-5---5-3-------------------------------| 
A|------------------------5-3---------------------------| 
E|-----------------------------3------------------------| 


So this is all I hope this help you. 
    	

enviado porenviado por: adalgomes
cifra enviadaCorrigida por: sem correções
logo top cifrasComente
ico música do artistaMúsicas deste artista
ico curtiuCurtiu?
ico destaqueDestaque
Petaxxon Comunicação Online

Cifras.com.br - Melhor e mais completo site de cifras e tablaturas do Brasil Mais de 1 milhão de acordes de músicas cadastradas desde 2003
As informações contidas no nosso site são colaborações de seus usuários e podem conter erros, sendo assim, não nos responsabilizamos sobre nenhuma destas.

close
menos
mais
close
Cor dos acordes:

Cor da letra:

close
Alinhar acordes a direita Alinhar acordes a esquerda Alinhar acordes em baixo Alinhar acordes no topo
close
  Mostrar todos os acordes Esconder acordes muito fáceis Esconder acordes fáceis Esconder acordes intermediários
redimensionar
glossário