Cifras e Tablaturas
Deafheaven

Deafheaven

Honeycomb

Cifras Cancelar Versão de Impressão Print

Deafheaven - Honeycomb

Tom:

  • 0:00 / 0:00
  			e|---------------------------------------------------------------------------| 
B|---------------------------------------------------------------------------| 
G|---------------------------------------------------------------------------| 
D|-5-5-5-5-5-5-5-5-4-4-4-4-4-4-4-4-4-5-5-5-5-5-5-5-5-4-4-4-4-4-4-4-----------| 
A|-2-2-2-2-2-2-2-2-2-2-2-2-2-2-2-2-2-2-2-2-2-2-2-2-2-2-2-2-2-2-2-2-----------| 
D|-2-2-2-2-2-2-2-2-2-2-2-2-2-2-2-2-2-2-2-2-2-2-2-2-2-2-2-2-2-2-2-2-----------| 

e|---------------------------------------------------------------------------| 
B|---------------------------------------------------------------------------| 
G|---------------------------------------------------------------------------| 
D|-5-5-5-5-5-5-5-5-5-5-5-5-5-5-5-5-5-5-5-5-5-5-5-5-5-5-5-5-5-5-5-5-----------| 
A|-3-3-3-3-3-3-3-3-3-3-3-3-3-3-3-3-3-3-3-3-3-3-3-3-3-3-3-3-3-3-3-3-----------| 
D|------------------------------------------------------------------5-4-2----| 

Vibratto the notes directly in this first section 

e|---------------------------------------------------------------------------| 
B|------------------------------------------------------------8b10-10-10-10r8| 
G|-----------------4--7--4---------------------------4--7--4-----------------| 
D|-5--4--5--7--5-7----------7-------5--4--5--7--5-7--------------------------| 
A|---------------------------------------------------------------------------| 
D|---------------------------------------------------------------------------| 

e|---------------------------------------------------------------------------| 
B|8-8-8-8-8-8-7-7-5-5-5-5-5-5-5-5-3-3-3-3-3-3-3-3----------------------------| 
G|------------------------------------------------5-5-5-5-5-5-5-5------------| 
D|---------------------------------------------------------------------------| 
A|---------------------------------------------------------------------------| 
D|---------------------------------------------------------------------------| 

e|---------------------------------------------------------------------------| 
B|8-8-8-8-8-8-7-7-5-5-5-5-5-5-5-5-3-3-3-3-3-3-3-3----------------------------| 
G|------------------------------------------------5-5-5-5-5-5-5-5------------| 
D|---------------------------------------------------------------------------| 
A|---------------------------------------------------------------------------| 
D|---------------------------------------------------------------------------| 

e|-------7-------7-------7-------7--10-----8-----7----10-----8-----7---------| 
B|---8-------8-------8-------8---------8-----8-----8-----8-----8-----8-------| 
G|-9---9---9---9---9---9---9---9---------9-----9-----------9-----9-----------| 
D|---------------------------------------------------------------------------| 
A|---------------------------------------------------------------------------| 
D|---------------------------------------------------------------------------| 

e|-------7-------7-------7-------7--10-----8-----7----10-----8-----7---------| 
B|---8-------8-------8-------8---------8-----8-----8-----8-----8-----8-------| 
G|-9---9---9---9---9---9---9---9---------9-----9-----------9-----9-----------| 
D|---------------------------------------------------------------------------| 
A|---------------------------------------------------------------------------| 
D|---------------------------------------------------------------------------| 

e|-----------------------------------------8-8-8-8-8-8-8-8-7-7-7-7-5-5-5-5---| 
B|-8-8-8-8-8-8-8-8-10-10-10-10-10-10-10-10-----------------------------------| 
G|---------------------------------------------------------------------------| 
D|---------------------------------------------------------------------------| 
A|---------------------------------------------------------------------------| 
D|---------------------------------------------------------------------------| 

e|-----------------------------------------8-8-8-8-8-8-8-8-7-7-7-7-5-5-5-5---| 
B|-8-8-8-8-8-8-8-8-10-10-10-10-10-10-10-10-----------------------------------| 
G|---------------------------------------------------------------------------| 
D|---------------------------------------------------------------------------| 
A|---------------------------------------------------------------------------| 
D|---------------------------------------------------------------------------| 

e|---------------------------------------------------------------------------| 
B|---------------------------------------------------------------------------| 
G|---------------------------------------------------------------------------| 
D|---------------------------------------------------------------------------| 
A|-10x16--9x16--7x16--6x16--10x16--10-10-10-10-\-9-9-9-9-\-7-7-7-7-\-5-5-5-5-| 
D|---------------------------------------------------------------------------| 

e|---------------------------------------------------------------------------| 
B|---------------------------------------------------------------------------| 
G|---------------------------------------------------------------------------| 
D|----------------------------------------5-5-5-5-7-7-7-7-9-9-9-9-7-7-7-7----| 
A|-7-7-7-7-\-5-5-5-5-\-3-3-3-3-\-2-2-2-2-------------------------------------| 
D|---------------------------------------------------------------------------| 

e|---------------------------------------------------------------------------| 
B|---------------------------------------------------------------------------| 
G|-----------------7-7-7-7---------------------------------------------------| 
D|-5-5-5-5-7-7-7-7-----------------------------------------------------------| 
A|---------------------------------------------------------------------------| 
D|---------------------------------------------------------------------------| 

e|---------------------------------------------------------------------------| 
B|---------------------------------------------------------------------------| 
G|---------------------------------------------------------------------------| 
D|---------------------------------------------------------------------------| 
A|-10x16--9x16--7x16--6x16--10x16--10-10-10-10-\-9-9-9-9-\-7-7-7-7-\-5-5-5-5-| 
D|---------------------------------------------------------------------------| 

e|---------------------------------------------------------------------------| 
B|---------------------------------------------------------------------------| 
G|---------------------------------------------------------------------------| 
D|----------------------------------------5-5-5-5-7-7-7-7-9-9-9-9-7-7-7-7----| 
A|-7-7-7-7-\-5-5-5-5-\-3-3-3-3-\-2-2-2-2-------------------------------------| 
D|---------------------------------------------------------------------------| 

e|---------------------------------------------------------------------------| 
B|---------------------------------------------------------------------------| 
G|-7--5--4hp4----------------------------------------------------------------| 
D|---------------------------------------------------------------------------| 
A|---------------------------------------------------------------------------| 
D|---------------------------------------------------------------------------| 
                             (This bit 7 times) 
e|---------------------------------------------------------------------------| 
B|---------------------------------------------------------------------------| 
G|---------------------------------------------------------------------------| 
D|---------------------------------------------------------------------------| 
A|----------------------------9x4--7x4--5x4--4x4-----------------------------| 
D|-9x16--12x16--10x16--7x16--------------------------------------------------| 

e|---------------------------------------------------------------------------| 
B|-------------8-7-5-3-------------------------------------------------------| 
G|-------------7-7-7-2-------------------------------------------------------| 
D|-4--4-4-4-4-----------5-5-5-4-2-2-0-0-0-0----------------------------------| 
A|-5--5-5-5-5-----------5-5-5-4-2-2-0-0-0-0----------------------------------| 
D|-0--0-0-0-0-----------5-5-5-4-2-2-0-0-0-0----------------------------------| 

Solo at 4:37 

e|---------------------------------------------------------------------------| 
B|---------------------------------------------------------------------------| 
G|----7-9-9^11^9-7---~7--------------~7--------------------------------------| 
D|--9--------------9------9-8-7---------9-8-7--------------------------------| 
A|------------------------------9-8-----------9-8-7-5------------------------| 
D|---------------------------------------------------------------------------| 

e|---------------------------------------------------------------------------| 
B|-10-10-8-7-8-7----10-10-8-7-8-7--------------------------------------------| 
G|--------------~7----------------7h9p7-~9-~11--~12--------------------------| 
D|---------------------------------------------------------------------------| 
A|---------------------------------------------------------------------------| 
D|---------------------------------------------------------------------------| 

e|---------------------------------------------------------------------------| 
B|---------------------------------------------------------------------------| 
G|-----7---7---7-9/11-9-7---~7--9-7------------~7----------------------------| 
D|---9---9---9------------9---------9-8-7---------9-8-7----------------------| 
A|----------------------------------------9-8-----------9-8-7-5--------------| 
D|---------------------------------------------------------------------------| 

e|---------------------------------------------------------------------------| 
B|-10-10-8-7-8-7----10-10-8-7-8-7--------------------------------------------| 
G|--------------~7----------------7h9p7-~9-~11--~12--------------------------| 
D|---------------------------------------------------------------------------| 
A|---------------------------------------------------------------------------| 
D|---------------------------------------------------------------------------| 

e|------------------------------14-12-10--------14-12-10---------------------| 
B|----7h8p7--------7h8p7--10-12-----------10-12------------------------------| 
G|--7--------9--7------------------------------------------------------------| 
D|---------------------------------------------------------------------------| 
A|---------------------------------------------------------------------------| 
D|---------------------------------------------------------------------------| 

e|---------------------------------------------------------------------------| 
B|-------------8-7-5-3-------------------------------------------------------| 
G|-------------7-7-7-2-------------------------------------------------------| 
D|-4--4-4-4-4-----------5-5-5-4-2-2-0-0-0-0----------------------------------| 
A|-5--5-5-5-5-----------5-5-5-4-2-2-0-0-0-0----------------------------------| 
D|-0--0-0-0-0-----------5-5-5-4-2-2-0-0-0-0----------------------------------| 

(Some sort of echo effect added here I believe) 

e|------9-5------------------------------------------------------------------| 
B|---------------------------------------------------------------------------| 
G|-6-7-----------------------------------------------------------------------| 
D|---------------------------------------------------------------------------| 
A|---------------------------------------------------------------------------| 
D|---------------------------------------------------------------------------| 

(Not 100% sure about this bit) 

e|---------------------------------------------------------------------------| 
B|---------------------------------------------------------------------------| 
G|-----------------------------------7-7-7-----------------------------------| 
D|----------------------------7-7-7--7-7-7-----------------------------------| 
A|-5-5-5-5--5-5-5-5--5-5-5-5--5-5-5--5-5-5-----------------------------------| 
D|-4-0-0-0--4-0-0-0--4-0-4-5--5-5-5--5-5-5-----------------------------------| 

e|---------------------------------------------------------------------------| 
B|---------------------------------------------------------------------------| 
G|-7-7-7---------------------------------------------------------------------| 
D|-------7-7-7-5-5-5-5-5-5-5-5-5-7-5-4-4h5p4TR-------------------------------| 
A|---------------------------------------------------------------------------| 
D|---------------------------------------------------------------------------| 

6:33 

e|-------------------------------------------10------------------------------| 
B|--------------------10-8-7--10-8-7--10-8-7---------------------------------| 
G|-~7-~9-~11-11h12p11--------------------------------------------------------| 
D|---------------------------------------------------------------------------| 
A|---------------------------------------------------------------------------| 
D|---------------------------------------------------------------------------| 

e|-----------------------------------------------------------------------10--| 
B|--------------------10-8-7---7-------10-8-7---7-------10-8-7---7-----------| 
G|-~7-~9-~11-11h12p11--------9---9-7-6--------9---9-7-6--------9---9-7-6-----| 
D|---------------------------------------------------------------------------| 
A|---------------------------------------------------------------------------| 
D|---------------------------------------------------------------------------| 

Outro 

e|--------5---------5---------5---------5---------5---------5---------5------| 
B|---5---------5---------5---------5---------5---------5---------5-----------| 
G|-7---7-----7---7-----7---7-----7---7-----7---7-----7---7-----7---7---------| 
D|---------------------------------------------------------------------------| 
A|---------------------------------------------------------------------------| 
D|---------------------------------------------------------------------------| 

e|----------17---------17---------17---------17---------17---------17--------| 
B|----17---------17---------17---------17---------17---------17--------------| 
G|-19----19---19----19---19----19---19----19---19----19---19----19-----------| 
D|---------------------------------------------------------------------------| 
A|---------------------------------------------------------------------------| 
D|---------------------------------------------------------------------------| 



************************************ 

| r  Release 
| b  Bend 
| ~  Vibrato 
| h  Hammer-on 
| p  Pull-off 
| /  Slide up 

************************************ 
    	

enviado porenviado por: bombaXXX
cifra enviadaCorrigida por: sem correções
logo top cifrasComente
ico música do artistaMúsicas deste artista
ico curtiuCurtiu?
ico destaqueDestaque
Petaxxon Comunicação Online

Cifras.com.br - Melhor e mais completo site de cifras e tablaturas do Brasil Mais de 1 milhão de acordes de músicas cadastradas desde 2003
As informações contidas no nosso site são colaborações de seus usuários e podem conter erros, sendo assim, não nos responsabilizamos sobre nenhuma destas.

close
menos
mais
close
Cor dos acordes:

Cor da letra:

close
Alinhar acordes a direita Alinhar acordes a esquerda Alinhar acordes em baixo Alinhar acordes no topo
close
  Mostrar todos os acordes Esconder acordes muito fáceis Esconder acordes fáceis Esconder acordes intermediários
redimensionar
glossário