Cifras e Tablaturas
Deafheaven

Deafheaven

Please Remember

Cifras Cancelar Versão de Impressão Print

Deafheaven - Please Remember

Tom:

  • 0:00 / 0:00
  			


Riff 1 (Guitar 1): 

For this just find the strumming pattern for each chord and you're good. 

|--0---0---0---3---3---| 
|--0---0---0---0---0---| 
|--0---0---0---0---0---| 
|--2---4---5---0---0---| 
|--2---2---3---2---0---| 
|--0---0---0---3---2---| 


Riff 2 (Guitar 2): 

Just strum a couple times for each chord, sometimes just once. 

|--0---0---0---3---3---| 
|--0---0---0---0---0---| 
|--0---0---0---0---0---| 
|--2---4---5---0---0---| 
|--2---2---3---2---0---| 
|--0---0---0---3---2---| 


Riff 3 (Guitar 3): 

|--------------------------------------------------| 
|--------------------------------------------------| 
|--7\5~--5\4~--4\2~--2---2/4v~---7\5~--5\4~---4b~--| 
|--------------------------------------------------| 
|--------------------------------------------------| 
|--------------------------------------------------| 


This is like my third tab. I'm pretty sure this is 90% correct. If you have any  
correction please comment and I will go over it and fix what needs to be fixed. 

Side note: I will probably do more tabs for Deafheaven, since there are none. I'm  
currently learning Dream House. 
    	

enviado porenviado por: fernsantana
cifra enviadaCorrigida por: sem correções
logo top cifrasComente
ico música do artistaMúsicas deste artista
ico curtiuCurtiu?
ico destaqueDestaque
Petaxxon Comunicação Online

Cifras.com.br - Melhor e mais completo site de cifras e tablaturas do Brasil Mais de 1 milhão de acordes de músicas cadastradas desde 2003
As informações contidas no nosso site são colaborações de seus usuários e podem conter erros, sendo assim, não nos responsabilizamos sobre nenhuma destas.

close
menos
mais
close
Cor dos acordes:

Cor da letra:

close
Alinhar acordes a direita Alinhar acordes a esquerda Alinhar acordes em baixo Alinhar acordes no topo
close
  Mostrar todos os acordes Esconder acordes muito fáceis Esconder acordes fáceis Esconder acordes intermediários
redimensionar
glossário