Cifras e Tablaturas
Death Cab For Cutie

Death Cab For Cutie

The Employment Pages

Cifras Cancelar Versão de Impressão

Death Cab For Cutie - The Employment Pages

Tom:

  			
Intro 
We spread out and occupied the cracks in the urban streets 
e|-------------------------------------------------------------------------| 
B|-----5---5---5---5--------------------5---5---5---5----------------------| 
G|---7---7---6---6-----6---6---6---6--7---7---6---6----6---6---6---6-------| 
D|-------------------7---7---5---5-------------------7---7---5---5---------| 
A|-------------------------------------------------------------------------| 
E|-------------------------------------------------------------------------| 
Idle now, I rearrange the furniture as you sleep, as you sleep, as you sleep 
e|-------------------------------------------------------------------------| 
B|-----5---5---5---5--------------------5---5---5---5----------------------| 
G|---7---7---6---6-----6---6---6---6--7---7---6---6----6---6---6---6-------| 
D|-------------------7---7---5---5-------------------7---7---5---5---------| 
A|-------------------------------------------------------------------------| 
E|-------------------------------------------------------------------------| 

Chorus 
It's so appropriate, the way we amplify the sound 
e|----------------------0----------------------------0---------------------| 
B|------------------------0---7------------------------0-------------------| 
G|-----6-------6------------6-------6-------6------------6-6s11s6*---------| 
D|---0---0-4-4---4--4s7-----------0---0-4-4---4--4s7-----------------------| 
A|-------------------------------------------------------------------------| 
E|-------------------------------------------------------------------------| 
And then the neighbours drop by, and they ask to turn it down again 
e|----------------------0----------------------------0---------------------| 
B|------------------------0---7------------------------0-------------------| 
G|-----6-------6------------6-------6-------6------------6-6s11s6*---------| 
D|---0---0-4-4---4--4s7-----------0---0-4-4---4--4s7-----------------------| 
A|-------------------------------------------------------------------------| 
E|-------------------------------------------------------------------------| 

Post Chorus 
e|-------------------------------------------------------------------------| 
B|---------5---------5---------------5---------5---------------------------| 
G|---------6---------6s11s6*---------6---------6s11s6*---------------------| 
D|-----4s6-------4s6-------------4s6-------4s6-----------------------------| 
A|---0---------0---------------0---------0---------------------------------| 
E|-------------------------------------------------------------------------| 

e|-------------------------------------------------------------------------| 
B|------------------------------------------5---------5--------------------| 
G|-----6-------6-------6-------6------------6---------6s11s6*--------------| 
D|-------0---0---0-------0---0---0------4s6-------4s6----------------------| 
A|---7-----7-------7-5-----5-------5--0---------0--------------------------| 
E|-------------------------------------------------------------------------| 

Verse 
We spread out and everyone was frightfully more aware 
e|-------------------------------------------------------------------------| 
B|-----5---5---5---5--------------------5---5---5---5----------------------| 
G|---7---7---6---6-----6---6---6---6--7---7---6---6----6---6---6---6-------| 
D|-------------------7---7---5---5-------------------7---7---5---5---------| 
A|-------------------------------------------------------------------------| 
E|-------------------------------------------------------------------------| 
So impresed with cocktail politics and obscure details 
e|-------------------------------------------------------------------------| 
B|-----5---5---5---5--------------------5---5---5---5----------------------| 
G|---7---7---6---6-----6---6---6---6--7---7---6---6----6---6---6---6-------| 
D|-------------------7---7---5---5-------------------7---7---5---5---------| 
A|-------------------------------------------------------------------------| 
E|-------------------------------------------------------------------------| 

e|-------------------------------------------------------------------------| 
B|-----5---5---5---5--------------------5---5---5---5----------------------| 
G|---7---7---6---6-----6---6---6---6--7---7---6---6----6---6---6---6-------| 
D|-------------------7---7---5---5-------------------7---7---5---5---------| 
A|-------------------------------------------------------------------------| 
E|-------------------------------------------------------------------------| 

Chorus 
It's so appropriate, the way we amplify the sound 
e|----------------------0----------------------------0---------------------| 
B|------------------------0---7------------------------0-------------------| 
G|-----6-------6------------6-------6-------6------------6-6s11s6*---------| 
D|---0---0-4-4---4--4s7-----------0---0-4-4---4--4s7-----------------------| 
A|-------------------------------------------------------------------------| 
E|-------------------------------------------------------------------------| 
And then the neighbours drop by, and they ask to turn it down again 
e|----------------------0----------------------------0---------------------| 
B|------------------------0---7------------------------0-------------------| 
G|-----6-------6------------6-------6-------6------------6-6s11s6*---------| 
D|---0---0-4-4---4--4s7-----------0---0-4-4---4--4s7-----------------------| 
A|-------------------------------------------------------------------------| 
E|-------------------------------------------------------------------------| 

Post Chorus 
e|-------------------------------------------------------------------------| 
B|---------5---------5---------------5---------5---------------------------| 
G|---------6---------6s11s6*---------6---------6s11s6*---------------------| 
D|-----4s6-------4s6-------------4s6-------4s6-----------------------------| 
A|---0---------0---------------0---------0---------------------------------| 
E|-------------------------------------------------------------------------| 

Bridge 
It was true, that I was truly failing 
e|-------------------------------------------------------------------------| 
B|------------------------------------------5---------5--------------------| 
G|-----6-------6-------6-------6------------6---------6s11s6*--------------| 
D|-------0---0---0-------0---0---0------4s6-------4s6----------------------| 
A|---7-----7-------7-5-----5-------5--0---------0--------------------------| 
E|-------------------------------------------------------------------------| 
You were gone, and I was home  
e|-------------------------------------------------------------------------| 
B|-------------------------------------------------------------------------| 
G|-----6-------6-------6-------6-------------------------------------------| 
D|-------0---0---0-------0---0---0-----------------------------------------| 
A|---7-----7-------7-5-----5-------5---------------------------------------| 
E|-------------------------------------------------------------------------| 
Calling around, but nothing was found worthwhile 
e|-------------------------------------------------------------------------| 
B|-------------------------------------------------------------------------| 
G|-------------------------------------------------------------------------| 
D|-----7---7---7---7---7---7---7---7---7---7---7---7---7---7---7---7-------| 
A|---6---6---6---6---5---5---5---5---6---6---6---6---5---5---5---5---------| 
E|-------------------------------------------------------------------------| 

Interlude 
e|------------------2-----2-----2-------------------2-----2-----2----------| 
B|---------5----------1-----1-----1--------5----------1-----1-----1--------| 
G|---------6s11s4*------2-----2------------6s11s4*------2-----2------------| 
D|-----4s6-----------------------------4s6---------------------------------| 
A|---0-------------------------------0-------------------------------------| 
E|-------------------------------------------------------------------------| 

e|------------------2-----2-----2-------------------2-----2-----2----------| 
B|---------5----------1-----1-----1--------5----------1-----1-----1--------| 
G|---------6s11s4*------2-----2------------6s11s4*------2-----2------------| 
D|-----4s6-----------------------------4s6---------------------------------| 
A|---0-------------------------------0-------------------------------------| 
E|-------------------------------------------------------------------------| 

Outro 
We spread out and occupied the cracks in the urban streets 
e|-------------------------------------------------------------------------| 
B|-----5---5---5---5--------------------5---5---5---5----------------------| 
G|---7---7---6---6-----6---6---6---6--7---7---6---6----6---6---6---6-------| 
D|-------------------7---7---5---5-------------------7---7---5---5---------| 
A|-------------------------------------------------------------------------| 
E|-------------------------------------------------------------------------| 
Idle now, I rearrange the furniture as you sleep, as you sleep, as you sleep 
e|-------------------------------------------------------------------------| 
B|-----5---5---5---5--------------------5---5---5---5----------------------| 
G|---7---7---6---6-----6---6---6---6--7---7---6---6----6---6---6---6-------| 
D|-------------------7---7---5---5-------------------7---7---5---5---------| 
A|-------------------------------------------------------------------------| 
E|-------------------------------------------------------------------------| 


************************************ 

| s   Slide 
| *   Pick Attack  

************************************ 
    	
fixar
fixar inscrever-se

enviado porenviado por: deivcavalcanti
cifra enviadaCorrigida por: sem correções
logo top cifrasComente
ico música do artistaMúsicas deste artista
ico curtiuCurtiu?
ico destaqueDestaque
Petaxxon Comunicação Online

Cifras.com.br - Melhor e mais completo site de cifras e tablaturas do Brasil Mais de 1 milhão de acordes de músicas cadastradas desde 2003
As informações contidas no nosso site são colaborações de seus usuários e podem conter erros, sendo assim, não nos responsabilizamos sobre nenhuma destas.

close
menos
mais
close
Cor dos acordes:

Cor da letra:

close
Alinhar acordes a direita Alinhar acordes a esquerda Alinhar acordes em baixo Alinhar acordes no topo
close
  Mostrar todos os acordes Esconder acordes muito fáceis Esconder acordes fáceis Esconder acordes intermediários
redimensionar
glossário