Cifras e Tablaturas
Deceived In Numbers

Deceived In Numbers

Four Leads East

Cifras Cancelar Versão de Impressão Print

Deceived In Numbers - Four Leads East

Tom: C

  • 0:00 / 0:00
  			 

Tuning: Drop C (C  G, C, F, A, D) 

e|-----------------------------------------------------------------------------------------------------| 
B|-----------------------------------------------------------------------------------------------------| 
G|-----------------------------------------------------------------------------------------------------| 
D|-----------------------------------------------------------------------------------------------------| 
A|-8-----8---8-----8---8---8---88-7-----7---7----7---7---7---7-----12-----12-----12---12---12---12-----| 
E|---0-0---0---0-0---0---0---0------0-0---0---0-0--0---0---0---0-0----0-0----0-0----0----0----0--------| 
     * *   *   * *   *   *   *      * *   *   * *  *   *   *   * *    * *    * *    *    *    * 
e|---------------------------------------------------------------------------| 
B|---------------------------------------------------------------------------| 
G|---------------------------------------------------------------------------| 
D|---------------------------------------------------------------------------| 
A|-8---8---8------7---7-------4p0h4------------------------------------------| 
E|---0---0---0-0----0---0--0-------------------------------------------------| 
     *   *   * *    *   *  * 
e|-----------------------------------------------------------------------------------------------------| 
B|-----------------------------------------------------------------------------------------------------| 
G|-----------------------------------------------------------------------------------------------------| 
D|-----------------------------------------------------------------------------------------------------| 
A|-8-----8---8-----8---8---8---88-7-----7---7----7---7---7---7-----12---12---12---12---12---12----12---| 
E|---0-0---0---0-0---0---0---0------0-0---0---0-0--0---0---0---0-0----0----0----0----0----0------0-----| 
     * *   *   * *   *   *   *      * *   *   * *  *   *   *   * *    *    *    *    *    *      * 

e|--------------------------------------------------------------------------------------------| 
B|--------------------------------------------------------------------------------------------| 
G|--------------------------------------------------------------------------------------------| 
D|------------------------------------------NOW REPEAT SECOND PART OF THE RIFF TWO MORE TIMES-| 
A|-8---8---8------7---7-------4p0h4-----------------------------------------------------------| 
E|---0---0---0-0----0---0--0------------------------------------------------------------------| 
     *   *   * *    *   *  * 
e|------------------------------------------------------------------------------------| 
B|------------------------------------------------------------------------------------| 
G|------------------------------------------------------------------------------------| 
D|--------------1--1---8~-7-------13~-12-------8~-7-------1~-0---------------(X2)-----| 
A|--------------1--1---8~-7--0-0--13~-12--0-0--8~-7--0-0--1~-0--0000000000------------| 
E|-87-75-53-31--1--1---8~-7--0-0--13~-12--0-0--8~-7--0-0--1~-0--0000000000------------| 
                             * *          * *        * *        ********** 
e|------------------------------------------------------------------------------------------------------------| 
B|------------------------------------------------------------------------------------------------------------| 
G|------------------------------------------------------------------------------------------------------------| 
D|-888888888888--8888888888888888-555555555555555555--8888-88-88-888-8-8888-88-88-888-8-----------------------| 
A|-888888888888--8888888888888888-555555555555555555--8888-88-88-888-8-8888-88-88-888-8-----------------------| 
E|-888888888888--8888888888888888-555555555555555555--8888-88-88-888-8-8888-88-88-888-8-----------------------| 

e|---------------------------------------------------------------------------| 
B|---------------------------------------------------------------------------| 
G|---------------------------------------------------------------------------| 
D|---------------------------------------------------------------------------| 
A|-5555555555555555-33333333-666--2222---------------------------------------| 
E|-5555555555555555-33333333-666--2222---------------------------------------| 

e|-------------------------------------------------------------------------------------------------------------| 
B|-------------------------------------REPEAT TWICE------------------------------------------------------------| 
G|-------------------------------------------------------------------------------------------------------------| 
D|-----------------------------------------------------------------------------------------3~~~~~-3-6--2~~~--1~| 
A|-8----8---8----8---8---8---8---12-----12-----12---12---12---12---12---7---7---7---7------3~~~~~-3-6--2~~~--1~| 
E|---0-0--0---0-0--0---0---0---0----0-0----0-0----0----0----0----0----0---0---0---0---0----3~~~~~-3-6--2~~~--1~| 
     * *  *   * *  *   *   *   *    * *    * *    *    *    *    *    *   *   *   *   * 
e|---------------------------------------------------------------------------| 
B|---------------------------------------------------------------------------| 
G|---------------------------------------------------------------------------| 
D|-0~~-----------YOU CAN FIGURE OUT BREAKDOWN PATTERN, ITS EASY--------------| 
A|-0~~-----------------------------------------------------------------------| 
E|-1~~-----------------------------------------------------------------------| 

e|-----------------------------------------------------------------------------------------------| 
B|-----------------------------------------------------------------------------------------------| 
G|-----------------------------------------------------------------------------------------------| 
D|---------------------------------------------(X4)----(SECOND BREAKDOWN YOU CAN ALSO FIGURE OUT-| 
A|-----------------------------------------------------------------------------------------------| 
E|-0-0--8\3-3/8-8\3-0-0-0~-8\3-3/8-0-0-1-3-1-0~--------------------------------------------------| 
                                                                 |00-00| 
Then it goes back to the Chorus, then the first verse again then |00-00| 
                                                                  ** ** 
************************************ 

| /   slide up 
| \   slide down 
| h   hammer-on 
| p   pull-off 
| *   Palm Mute 

************************************ 
    	

enviado porenviado por: bombaXXX
cifra enviadaCorrigida por: sem correções
logo top cifrasComente
ico música do artistaMúsicas deste artista
ico curtiuCurtiu?
ico destaqueDestaque
Petaxxon Comunicação Online

Cifras.com.br - Melhor e mais completo site de cifras e tablaturas do Brasil Mais de 1 milhão de acordes de músicas cadastradas desde 2003
As informações contidas no nosso site são colaborações de seus usuários e podem conter erros, sendo assim, não nos responsabilizamos sobre nenhuma destas.

close
menos
mais
close
Cor dos acordes:

Cor da letra:

close
Alinhar acordes a direita Alinhar acordes a esquerda Alinhar acordes em baixo Alinhar acordes no topo
close
  Mostrar todos os acordes Esconder acordes muito fáceis Esconder acordes fáceis Esconder acordes intermediários
redimensionar
glossário