Cifras e Tablaturas
Dilermando reis

Dilermando reis

Conversa De Bahiana

Cifras Cancelar Versão de Impressão
cifras

Dilermando reis - Conversa De Bahiana

fixar na tela  
Exibindo: vídeo-aula ver clipes redimensionar

Tom:

  
1 
e|-------1-----------1-----------3-----------3-----------1-------- 
B|-------3-----------3-----------2-----------2-----------3-------- 
G|----2-----------2-----------2-----------2-----------2----------- 
D|----------------------------------2-----------2----------------- 
A|----------0-----------0--------------0-------------------------- 
E|-0-----------3-----------1-----------------------0-------------- 

e|----------1-----------3-----------3----------1------------------ 
B|----------3-----------2-----------2----------3------------------ 
G|-------2-----------2-----------2----------2--------------------- 
D|-------------------------2-----------0-------------------------- 
A|-0-----------0--------------0----------------------------------- 
E|----3-----------2-----------------------0----------------------- 


2 

e|--------5--10--13--12--11----12--9------------0----------------- 
B|------6-----------------------------11-------------------------- 
G|----7-----------------------------------12--------6-----0------- 
B|---------------------------0-------------------------7~-------3- 
D|--------------------------------------------0------------------- 
E|-0---------------------------------------------------------0---- 


3 

e|---------------------------------------------------------------- 
B|---------------------------------------------------------------- 
G|---------------2--0-----0--------------------------------------- 
D|-----0--hn2--3-------3-----2------------------------------------ 
A|---0--------------------------4--1--0--------------------------- 
E|-0-------------------------------------5--3--2--0--------------- 


4 

e|----------------------5-----8p6-------6------------------------- 
B|----------------4--7-------------8-------3-----------0-----6--9- 
G|-------------5-----------0----------7-------3-----------7------- 
D|----0--4--7--------------------------------------3h6------------ 
A|---------------------------------------------------------------- 
E|-0---------------------------------------------6---------------- 

e|-7----10p9--6-----0--------------------------------------------- 
G|---------------8------------------------------------------------ 
B|---------------------6------0----------------------------------- 
D|------------------------7~--------3----------------------------- 
A|----0----------------------------------------------------------- 
E|-------------------------------0-------------------------------- 


5 

e|--------------------5-----8p6--------------------------------5-- 
B|--------------4--7-------------8-----1--------------------6----- 
G|-----------5-----------0----------7-----3~--0--1----2--7-------- 
D|---0h4--7------------------------------------------------------- 
A|---------------------------------------------------------------- 
E|-0------------------------------------------------0------------- 

e|-------0-------------------------------------------------------- 
B|----8----------------------------------------------------------- 
G|----------6--------7~--2---------------------------------------- 
D|-------------7------------3--0---------------------------------- 
A|-0-------------------------------------------------------------- 
E|----------------0----------------------------------------------- 


6 


e|----------------7--9--10-----12------------------------------7-- 
B|---7--8--9--10-------------------10--10----------7--8--9--10---- 
G|---------------------------------12--12------------------------- 
D|---------------------------------11--11------------------------- 
A|--------------------------0--------------0--0------------------- 
E|-0---------------------------------------------0---------------- 

e|-9--10--12------------------------------------------------------ 
B|------------10--10---------------------------------------------- 
G|------------12--12---------------------------------------------- 
D|------------11--11---------------------------------------------- 
A|---------0----------0------------------------------------------- 
E|---------------------------------------------------------------- 


7 

e|------7-----------7-----------7------------10-----------5------- 
B|------7-----------7-----------6-------------9-----------8------- 
G|---8-----------8-----------7-----------10------------6---------- 
D|---------------------------------------------------------------- 
A|---------------------------------------------------------------- 
E|-9-------9--7--------7--6--------6--9----------9--7--------7---- 

e|-5------5--------5p2-------------------------------------------- 
B|-------5-------------3p0--------------------------------------- 
G|-----6---------------------2------------------------------------ 
D|------------------------------4p0------------------------------- 
A|-----------------------------------0---------------------------- 
E|-----------5--0-----------------------0------------------------- 


8 

e|---3--------3--------3----2--------2-------------2----0-------0- 
B|------5--------5-------------3--------3-----3------------0------ 
G|---------4--------4-------------2--------2-----3------------0--- 
D|---------------------------------------------------------------- 
A|---------------------------------------------------------------- 
E|-5----------------------4---------------------------2----------- 


e|-------0----------0--2--------------3-------3-------3----2------ 
B|-0--------3p2--3--------3--------------3-------3------------3--- 
G|----0----------------------2--------------4-------4------------- 
D|------------------------------4--5---------------------4-------- 
A|---------------------------------------------------------------- 
E|----------0----------------------------------------------------- 


e|----2-------2----0-------0-------0------------------------------ 
B|------3------------0-------0----------3------------------------- 
G|-2------2------------0-------0-----------2------------------hn7- 
D|---------------2----------------------------4p0-------------hn7- 
A|-------------------------------------------------2p0------------ 
E|------------------------------------0-----------------2p0------- 
  

top 5 | dilermando reis
top brasil
Outras músicas do artista letras do(a) Dilermando reis
Top cifras »Top artistas »
Petaxxon Comunicação Online
Cifras.com.br - Melhor e mais completo site de cifras e tablaturas do Brasil
Mais de 1 milhão de acordes de músicas cadastradas desde 2003
As informações contidas no nosso site são colaborações de seus usuários e podem conter erros, sendo assim, não nos responsabilizamos sobre nenhuma destas.
close
menos
mais
close
Cor dos acordes:

Cor da letra:

 

save
close
close
 
redimensionar