Cifras e Tablaturas
Dire Straits

Dire Straits

Brothers in Arms Tablatura Verificada

Ano: 1985
Album : Brothers In Arms
Compositor : (Mark Knopfler)

Cifras Cancelar Versão de Impressão
cifras

Dire Straits - Brothers in Arms

fixar na tela  
Exibindo: vídeo-aula ver clipes redimensionar

Tom:

  
Capo 4 


Intro: 

e|-------------------------------------------------------| 
B|-------------------------------------------------------| 
G|------------------------------0------------------------| 
D|------2---4---2--------2p4--------2----------2---------| 
A|-1/2---------------2----------3-------3--0-------0--3--| 
E|----------------0--------------------------------------| 

e|-------------------------------------------------------------| 
B|----------------------------------------0--------------------| 
G|------0---1/2--0---------------------0------2---2/5---2---0--| 
D|---4---------------4--2--0p2-4--2----------------------------| 
A|-------------------------3------------------0----------------| 
E|------0-----------------------------------------0------------| 

e|---------------------------------------------------------3-| 
B|----------------------------------------------1----------1-| 
G|------------------------0--2-----3/2--0-------0----------0-| 
D|---4--2--0p2--4--2---------0------------------2----------2-| 
A|---------3-----------0---------------------3------3--0-----| 
E|---------------------------------0-------------------------| 

e|-----------------0-| 
B|-----------------0-| 
G|-----------------0-| 
D|-----------------4-| 
A|-------2---------2-| 
E|----0-----3---0----| 

Theme: 

e|------------------0--------| 
B|----------0---3----------3-| 
G|--0-0-0-------0----------0-| 
D|--------------0----------4-| 
A|--------------2---3------5-| 
E|------3---2----------------| 

e|-----------------------| 
B|----0--0--1--2/4---0---| 
G|-----------------------| 
D|----0--0--2--3/4-------| 
A|-----------------------| 
E|-------------------3---| 

e|---------------------------0--0-| 
B|---1--1---3---3--3--0--3---0--0-| 
G|---0--0---0------0------------0-| 
D|---2-2----4------4--------------| 
A|------------------------------2-| 
E|---3------3------2---------0----| 

e|-----2h0---0-0p2---------------0---------------------0------| 
B|---------3-------0--0--1--3----------1-------3-3h0-3----0---| 
G|-------------------------------------0----------------------| 
D|-----------------0--0--2--4----------2-----0----------------| 
A|--2----------------------------3-----3------------------2---| 
E|----------------------------------3----3---2---2-----0------| 

Part 2: 

e|-------------------------------------------------------------------| 
B|-------------------------------------------------------------------| 
G|--0----0-2--0-----------------------0---2--/4-2-0------------------| 
D|----4----------4--2--0p2--4---2----0-0-------------4--2--0p2--4-2--| 
A|---------------------3----------0-0----------------------3---------| 
E|-------0--------------------------------2---0----------------------| 

e|----------------------| 
B|---0--0---------------| 
G|--0---2--/4-----------| 
D|----------------------| 
A|------0-------2-------| 
E|----------0------3--0-| 

e|-----------------------------------------------------------------| 
B|----0----------0----------0--------------------------0---3--0----| 
G|-------0---2------0--2------------------------4--2-------2-----2-| 
D|-----------0---------------------------4---5-----0-------0-------| 
A|---------------------------------2/7-7---------------------------| 
E|-----------2--------------0----------------------2-------2-------| 

e|-------------------------------------------------------------------| 
B|-----------------------------------2--------0-----1--0--------0----| 
G|---0--------------------2----2--2-----0--2--------2--0--2--0--0--2-| 
D|---------4--5--4--2--5----------0-----------------------4--2-----0-| 
A|---3---------------------------------------------------------------| 
E|------------------------2-------2-----------0--------------------2-| 

e|---------------0------| 
B|---0--0--3--3---------| 
G|---------2---------0--| 
D|---------0------------| 
A|-------------------3--| 
E|---------2------------| 

e|----3----2-1-2h0---| 
B|----1------------0-| 
G|----0------------0-| 
D|----2------------4-| 
A|----3------------2-| 
E|-----------------0-| 



  

top 5 | dire straits
top rock'n roll
Outras músicas do artista letras do(a) Dire Straits
Top cifras »Top artistas »
Petaxxon Comunicação Online
Cifras.com.br - Melhor e mais completo site de cifras e tablaturas do Brasil
Mais de 1 milhão de acordes de músicas cadastradas desde 2003
As informações contidas no nosso site são colaborações de seus usuários e podem conter erros, sendo assim, não nos responsabilizamos sobre nenhuma destas.
close
menos
mais
close
Cor dos acordes:

Cor da letra:

 

save
close
close
 
redimensionar