Cifras e Tablaturas
Djordje Balasevic

Djordje Balasevic

Olivera (ver. Acoustic)

Cifras Cancelar Versão de Impressão
cifras

Djordje Balasevic - Olivera (ver. Acoustic)

fixar na tela  
Exibindo: vídeo-aula ver clipes redimensionar

Tom:

  
Intro 
e|--------5------------------------------------------------------------------| 
B|-----3----------------0-----------2-----------2----------------------------| 
G|---2----------------1-----------2-----------2------------------------------| 
D|-0----------------2-----------2-----------4--------------------------------| 
A|----------------------------0----------------------------------------------| 
E|---------------0------------------------2----------------------------------| 

e|------2--------------------------------------------------------------------| 
B|-----3-3--3----------0---------------2------3----2----0--------------------| 
G|----2---2----------1---2h1---------2---2------2----2---2-------------------| 
D|--0--------------2--------2------2-------2-----2----2---2------------------| 
A|-------------------------------0------------0----0-------------------------| 
E|---------------0-----------------------------------------------------------| 

e|--------5------------------------------------------------2--------2--------| 
B|-----3------------0---2h3------2---2-2-2------2-------2--2-------3-3-3-----| 
G|---2------------1---------1----2---2-2-2------2--2--2----2------2---2------| 
D|-0-------------2---------------2---2-2-2------4---4------------0-----------| 
A|-------------------------------0---0-4-2-----------------------------------| 
E|-----------0----------------------------------2----------2-----------------| 

e|---------------------------------------------------------------------------| 
B|--------0----------------2------3----2----0--------------------------------| 
G|------1---1---1--------2---2--2---2----2---2-------------------------------| 
D|----2-------2--------2------2------2----2---2------------------------------| 
A|-------------------0------------0----0-------------------------------------| 
E|-0-------------------------------------------------------------------------| 

Verse 
e|---------2------------------------------------------------------------------| 
B|-------3---3-3---------2--------------2----------------3--------------------| 
G|-----2------2--------2---2-2--------2---2--2---------4---4---4--------------| 
D|---0---------------4------4-------2------2---------4-------4----------------| 
A|--------------------------------0-------------------------------------------| 
E|-----------------2-------------------------------2--------------------------| 
  "Na pragu svojih...." 

e|--------2-------------------------------------------------------------------| 
B|------3---3--3-----------0-----------------2-----2--3-----2----0------------| 
G|----2------2-----------1---1--1----------2---2--------2-----2----2----------| 
D|--0------------------2------2----------2-------2-------2-----2-----2--------| 
A|-------------------------------------0--------------------------------------| 
E|-------------------0--------------------------------------------------------| 
  "Bile su moderne..." 

e|---------2------------------------------------------------------------------| 
B|-------3---3-3---------2--------------2----------------3--------------------| 
G|-----2------2--------2---2-2--------2---2--2---------4---4---4--------------| 
D|---0---------------4------4-------2------2---------4-------4----------------| 
A|--------------------------------0-------------------------------------------| 
E|-----------------2-------------------------------2--------------------------| 
  "Ne zelim svega...." 

e|--------2-------------------------------------------------------------------| 
B|------3---3--3-----------0-----------------2-----2--3-----2----0------------| 
G|----2------2-----------1---1--1----------2---2--------2-----2----2----------| 
D|--0------------------2------2----------2-------2-------2-----2-----2--------| 
A|-------------------------------------0--------------------------------------| 
E|-------------------0--------------------------------------------------------| 
  "Zvalo me zabranjeno..." 

Chorus 
  *Strumming* 
e|----2----------0---------0------0/2-----2-------0-------0-------------------| 
B|----3----------0---------2------2/2-----3-------0-------2h3h2h0-------------| 
G|----2----------1---------2------2/2-----2-------1-------2-------------------| 
D|----0----------2---------2------2/4-----0-------2-------2-------------------| 
A|---------------2---------0------0/4-------------2-------0-------------------| 
E|---------------0----------------4/2-------------0-------0-------------------| 
   "Sad zalim da..."                    "Leteo je kao..." 

                                         *Sad mali fingerpick element* 
e|----2----------0---------0------0/2-----2-----2-------0-------------2------2----0---| 
B|----3----------0---------2------2/2-----3---3--3--3---0----0--------3----3------2---| 
G|----2----------1---------2------2/2-----2--2----2-----1---1---1-----2--2--------2---| 
D|----0----------2---------2------2/4-----0-------------2--2------2---0-----------2---| 
A|---------------2---------0------0/4-------------------2-------------------------0---| 
E|---------------0----------------4/2-------------------0-----------------------------| 
  "Drugi bi sve..." 

verse 2 
e|---------2------------------------------------------------------------------| 
B|-------3---3-3---------2--------------2----------------3--------------------| 
G|-----2------2--------2---2-2--------2---2--2---------4---4---4--------------| 
D|---0---------------4------4-------2------2---------4-------4----------------| 
A|--------------------------------0-------------------------------------------| 
E|-----------------2-------------------------------2--------------------------| 
  "Mozda sam...." 

e|--------2-------------------------------------------------------------------| 
B|------3---3--3-----------0-----------------2-----2--3-----2----0------------| 
G|----2------2-----------1---1--1----------2---2--------2-----2----2----------| 
D|--0------------------2------2----------2-------2-------2-----2-----2--------| 
A|-------------------------------------0--------------------------------------| 
E|-------------------0--------------------------------------------------------| 
  "Mozda smo zajedno..." 

e|---------2------------------------------------------------------------------| 
B|-------3---3-3---------2--------------2----------------3--------------------| 
G|-----2------2--------2---2-2--------2---2--2---------4---4---4--------------| 
D|---0---------------4------4-------2------2---------4-------4----------------| 
A|--------------------------------0-------------------------------------------| 
E|-----------------2-------------------------------2--------------------------| 
  "Mozda si sasvim...." 

e|--------2-------------------------------------------------------------------| 
B|------3---3--3-----------0-----------------2-----2--3-----2----0------------| 
G|----2------2-----------1---1--1----------2---2--------2-----2----2----------| 
D|--0------------------2------2----------2-------2-------2-----2-----2--------| 
A|-------------------------------------0--------------------------------------| 
E|-------------------0--------------------------------------------------------| 
  "I mozda smo se..." 

Chorus 
  *Strumming* 
e|----2----------0---------0------0/2-----2-------0-------0-------------------| 
B|----3----------0---------2------2/2-----3-------0-------2h3h2h0-------------| 
G|----2----------1---------2------2/2-----2-------1-------2-------------------| 
D|----0----------2---------2------2/4-----0-------2-------2-------------------| 
A|---------------2---------0------0/4-------------2-------0-------------------| 
E|---------------0----------------4/2-------------0-------0-------------------| 
   "Sad zalim da..."                    "Daleko od moga..." 

  *Strumming* 
e|----2----------0---------0------0/2-----2-------0-------0-------------------| 
B|----3----------0---------2------2/2-----3-------0-------2h3h2h0-------------| 
G|----2----------1---------2------2/2-----2-------1-------2-------------------| 
D|----0----------2---------2------2/4-----0-------2-------2-------------------| 
A|---------------2---------0------0/4-------------2-------0-------------------| 
E|---------------0----------------4/2-------------0-------0-------------------| 
   "Drugi bi sve..."                    "I nitko ne bi..." 
                                         
e|----2----------0---------0------0/2-----2-----2-------0-------------2------2----0---| 
B|----3----------0---------2------2/2-----3---3--3--3---0----0--------3----3------2---| 
G|----2----------1---------2------2/2-----2--2----2-----1---1---1-----2--2--------2---| 
D|----0----------2---------2------2/4-----0-------------2--2------2---0-----------2---| 
A|---------------2---------0------0/4-------------------2-------------------------0---| 
E|---------------0----------------4/2-------------------0-----------------------------| 
  "Znao bih gde..."                       "I cekao da ti odrastes,   Oliveeeeeeraaaaa" 

************************************ 

| h   Hammer-on 
| /   Slide up 

************************************ 
  

top 5 | djordje balasevic
top rock'n roll
Outras músicas do artista letras do(a) Djordje Balasevic
Top cifras »Top artistas »
Petaxxon Comunicação Online
Cifras.com.br - Melhor e mais completo site de cifras e tablaturas do Brasil
Mais de 1 milhão de acordes de músicas cadastradas desde 2003
As informações contidas no nosso site são colaborações de seus usuários e podem conter erros, sendo assim, não nos responsabilizamos sobre nenhuma destas.
close
menos
mais
close
Cor dos acordes:

Cor da letra:

 

save
close
close
 
redimensionar