Cifras e Tablaturas
D.O.A.

D.O.A.

Human Bomb

Cifras Cancelar Versão de Impressão
cifras

D.O.A. - Human Bomb

fixar na tela  
Exibindo: vídeo-aula ver clipes redimensionar

Tom:

  Intro 
e|-------------------------------------|x3 
B|-------------------------------------| 
G|-------------------------------------| 
D|-------------------------------------| 
A|-----3-----5--5~---3-5-3-5--5--3-5---| 
E|--5-----5----------------------------| 

e|----------------------------| 
B|----------------------------| 
G|----------------------------| 
D|----------------------------| 
A|-----3-----5--5~---3-5-3-5--| 
E|--5-----5-------------------| 

e|-------------------------|--------------------| 
B|-------------------------|--------------------| 
G|-------------------------|--------------------| 
D|--12--12--12---12---12---|---10--10--10--10---| 
A|--10--10--10---10---10---|----8---8---8---8---| 
E|-------------------------|--------------------| 

Verse 
e|-------------------------------------|x4 
B|-------------------------------------| 
G|-------------------------------------| 
D|-------------------------------------| 
A|-----3-----5--5~---3-5-3-5--5--3-5---| 
E|--5-----5----------------------------| 

e|-------------------------------------| 
B|-------------------------------------| 
G|-------------------------------------| 
D|-------------------------------------| 
A|-----3-----5--5~---3-5-3-5--5--3-5---| 
E|--5-----5----------------------------| 
 | 
e|----------------------------------| 
B|----------------------------------| 
G|----------------------------------| 
D|----------------------------------| 
A|-----3-----5--5~---3-5-3---5---3--| 
E|--5-----5------------------3---1--| 

e|-------------------------------------| 
B|-------------------------------------| 
G|-------------------------------------| 
D|-------------------------------------| 
A|-----3-----5--5~---3-5-3-5--5--3-5---| 
E|--5-----5----------------------------| 

e|----------------------------------| 
B|----------------------------------| 
G|----------------------------------| 
D|--12---x---12------10---x---10----| 
A|--10---x---10-------8---x----8----| 
E|----------------------------------| 

e|-------------------------------------| 
B|-------------------------------------| 
G|-------------------------------------| 
D|-------------------------------------| 
A|-----3-----5--5~---3-5-3-5--5--3-5---| 
E|--5-----5----------------------------| 
 | 
e|----------------------------------| 
B|----------------------------------| 
G|----------------------------------| 
D|----------------------------------| 
A|-----3-----5--5~---3-5-3---5---3--| 
E|--5-----5------------------3---1--| 

e|-------------------------------------| 
B|-------------------------------------| 
G|-------------------------------------| 
D|-------------------------------------| 
A|-----3-----5--5~---3-5-3-5--5--3-5---| 
E|--5-----5----------------------------| 

e|-------------------------|x2 
B|-------------------------| 
G|-------------------------| 
D|--7---7-7-7-7-7-7--10-7--| 
A|--5---5-5-5-5-5-5--8--5--| 
E|-------------------------| 

Chorus 
e|-----------------------------------|----/8---8---8----10--10---8---8---|x3 
B|-----------------------------------|----/10--10--10---10--10---10--10--| 
G|-----------------------------------|-----------------------------------| 
D|-----------------------------------|-----------------------------------| 
A|--3----------------5--5--x--5--5---|-----------------------------------| 
E|--1---1-1-1-1-1----3--3--x--3--3---|-----------------------------------| 

e|-----------------------------------|-------| 
B|-----------------------------------|-------| 
G|-----------------------------------|-------| 
D|-----------------------------------|-------| 
A|--3----------------5--5--x--5--5---|---7---| 
E|--1---1-1-1-1-1----3--3--x--3--3---|---5---| 

Verse 
e|-------------------------------------|x3 
B|-------------------------------------| 
G|-------------------------------------| 
D|-------------------------------------| 
A|-----3-----5--5~---3-5-3-5--5--3-5---| 
E|--5-----5----------------------------| 

e|----------------------------| 
B|----------------------------| 
G|----------------------------| 
D|----------------------------| 
A|-----3-----5--5~---3-5-3-5--| 
E|--5-----5-------------------| 

e|-------------------------|--------------------| 
B|-------------------------|--------------------| 
G|-------------------------|--------------------| 
D|--12--12--12---12---12---|---10--10--10--10---| 
A|--10--10--10---10---10---|----8---8---8---8---| 
E|-------------------------|--------------------| 

e|-------------------------------------| 
B|-------------------------------------| 
G|-------------------------------------| 
D|-------------------------------------| 
A|-----3-----5--5~---3-5-3-5--5--3-5---| 
E|--5-----5----------------------------| 
 | 
e|----------------------------------| 
B|----------------------------------| 
G|----------------------------------| 
D|----------------------------------| 
A|-----3-----5--5~---3-5-3---5---3--| 
E|--5-----5------------------3---1--| 

e|-------------------------------------| 
B|-------------------------------------| 
G|-------------------------------------| 
D|-------------------------------------| 
A|-----3-----5--5~---3-5-3-5--5--3-5---| 
E|--5-----5----------------------------| 

e|----------------------------------| 
B|----------------------------------| 
G|----------------------------------| 
D|--12---x---12------10---x---10----| 
A|--10---x---10-------8---x----8----| 
E|----------------------------------| 

e|-------------------------------------| 
B|-------------------------------------| 
G|-------------------------------------| 
D|-------------------------------------| 
A|-----3-----5--5~---3-5-3-5--5--3-5---| 
E|--5-----5----------------------------| 
 | 
e|----------------------------------| 
B|----------------------------------| 
G|----------------------------------| 
D|----------------------------------| 
A|-----3-----5--5~---3-5-3---5---3--| 
E|--5-----5------------------3---1--| 

e|-------------------------------------| 
B|-------------------------------------| 
G|-------------------------------------| 
D|-------------------------------------| 
A|-----3-----5--5~---3-5-3-5--5--3-5---| 
E|--5-----5----------------------------| 

e|-------------------------|x2 
B|-------------------------| 
G|-------------------------| 
D|--7---7-7-7-7-7-7--10-7--| 
A|--5---5-5-5-5-5-5--8--5--| 
E|-------------------------| 

Chorus 
e|-----------------------------------|----/8---8---8----10--10---8---8---|x3 
B|-----------------------------------|----/10--10--10---10--10---10--10--| 
G|-----------------------------------|-----------------------------------| 
D|-----------------------------------|-----------------------------------| 
A|--3----------------5--5--x--5--5---|-----------------------------------| 
E|--1---1-1-1-1-1----3--3--x--3--3---|-----------------------------------| 

e|-----------------------------------|-------| 
B|-----------------------------------|-------| 
G|-----------------------------------|-------| 
D|-----------------------------------|-------| 
A|--3----------------5--5--x--5--5---|---7---| 
E|--1---1-1-1-1-1----3--3--x--3--3---|---5---| 

Solo 
e|----------------------------------|------------------------------------| 
B|----10----10----------------------|----------------------13------------| 
G|----12b---12b---12br-10------10~--|---------10--10~--12b----12r--10~---| 
D|-------------------------12-------|--10h12-----------------------------| 
A|----------------------------------|------------------------------------| 
E|----------------------------------|------------------------------------| 

e|----------------------------------|-------------------------------| 
B|----10----10----------------------|-------------------------------| 
G|----12b---12b---12br-10------10~--|--10---------------------------| 
D|-------------------------12-------|-----12--12~---------10--10~---| 
A|----------------------------------|--------------10h12------------| 
E|----------------------------------|-------------------------------| 

e|------------------------------|--------------------------------| 
B|------------------------------|--10---10--10----10-------------| 
G|--10--------------------------|--12b------12b---12br-10--10~---| 
D|------12--12~---12-12-12-12~--|--------------------------------| 
A|------------------------------|--------------------------------| 
E|------------------------------|--------------------------------| 

e|--13--13--13--13--13--13-|-13--13--13--13--13-\---/10---| 
B|--13b-----13b-----13b----|-13b-----13b-----13b\---/10---| 
G|-------------------------|------------------------------| 
D|-------------------------|------------------------------| 
A|-------------------------|------------------------------| 
E|-------------------------|------------------------------| 

e|--10---10---10------------10/--|------------------| 
B|--13b--13b--13br-br-br-br-10/--|-12---------------| 
G|-------------------------------|-12---10-10--10~--| 
D|-------------------------------|------------------| 
A|-------------------------------|------------------| 
E|-------------------------------|------------------| 

Verse 
e|--------------|x4 
B|--------------| 
G|--------------| 
D|--------------| 
A|-----3-----5--| 
E|--5-----5-----| 

e|--------------|----------| 
B|--------------|----------| 
G|--------------|----------| 
D|--------------|----------| 
A|-----3-----5--|---5--3---| 
E|--5-----5-----|---3--1---| 

e|--------------| 
B|--------------| 
G|--------------| 
D|--------------| 
A|-----3-----5--| 
E|--5-----5-----| 

e|----------------------------------| 
B|----------------------------------| 
G|----------------------------------| 
D|--12---x---12------10---x---10----| 
A|--10---x---10-------8---x----8----| 
E|----------------------------------| 

e|--------------------------------------| 
B|--------------------------------------| 
G|--------------------------------------| 
D|--x--x--7--x--x--7--x--x--7--x--x--7--| 
A|--x--x--5--x--x--5--x--x--5--x--x--5--| 
E|--------------------------------------| 
 | 
e|----------| 
B|----------| 
G|----------| 
D|----------| 
A|---5--3---| 
E|---3--1---| 

e|--------------------------------------| 
B|--------------------------------------| 
G|--------------------------------------| 
D|--x--x--7--x--x--7--x--x--7--x--x--7--| 
A|--x--x--5--x--x--5--x--x--5--x--x--5--| 
E|--------------------------------------| 
  
e|-------------------------|x2 
B|-------------------------| 
G|-------------------------| 
D|--7---7-7-7-7-7-7--10-7--| 
A|--5---5-5-5-5-5-5--8--5--| 
E|-------------------------| 

Chorus 
e|-----------------------------------|----/8---8---8----10--10---8---8---|x3 
B|-----------------------------------|----/10--10--10---10--10---10--10--| 
G|-----------------------------------|-----------------------------------| 
D|-----------------------------------|-----------------------------------| 
A|--3----------------5--5--x--5--5---|-----------------------------------| 
E|--1---1-1-1-1-1----3--3--x--3--3---|-----------------------------------| 

e|-----------------------------------|-------| 
B|-----------------------------------|-------| 
G|-----------------------------------|-------| 
D|-----------------------------------|-------| 
A|--3----------------5--5--x--5--5---|---7---| 
E|--1---1-1-1-1-1----3--3--x--3--3---|---5---| 

Outro 
e|-------------------------------------|x8 
B|-------------------------------------| 
G|-------------------------------------| 
D|---------------------------3--3---5--| 
A|-----3-----5--5~---3-5-3---1--1---3--| 
E|--5-----5----------------------------| 

e|-------------------------| 
B|-------------------------| 
G|-------------------------| 
D|--7-7-7-7-7-7-7-7--10-7--| 
A|--5-5-5-5-5-5-5-5--8--5--| 
E|-------------------------| 



************************************ 

| h   Hammer-on 
| p   Pull-off 
| r   Release 
| b   Bend 
| br  Bend release 
| /   Slide up 
| \   Slide down 
| ~   Vibrato 

************************************ 
  

top 5 | d.o.a.
top rock'n roll
Outras músicas do artista letras do(a) D.O.A.
Top cifras »Top artistas »
Petaxxon Comunicação Online
Cifras.com.br - Melhor e mais completo site de cifras e tablaturas do Brasil
Mais de 1 milhão de acordes de músicas cadastradas desde 2003
As informações contidas no nosso site são colaborações de seus usuários e podem conter erros, sendo assim, não nos responsabilizamos sobre nenhuma destas.
close
menos
mais
close
Cor dos acordes:

Cor da letra:

 

save
close
close
 
redimensionar