Cifras e Tablaturas
Doddleoddle

Doddleoddle

Sick Of Losing Soulmates

Cifras Cancelar Versão de Impressão
cifras

Doddleoddle - Sick Of Losing Soulmates

fixar na tela  
Exibindo: vídeo-aula ver clipes redimensionar

Tom:

  
e|---------------------------| 
B|---------------------------| 
G|---------------------------| 
D|-------0----0-----0----0---| 
A|---------------------------| 
E|---7-----5-----2-----3-----|  

what the hell would I be 
without you 

brave face talk so lightly  
hide the truth 

e|-----------------------------| 
B|-----------------------------| 
G|-----------------------------| 
D|-------0----0-----0----0----0| 
A|-----------------------------| 
E|---7-----5-----10----2----3--|  

now I’m sick of losing soul mates 
so where do we begin 
I can finally see 
you’re as fucked up as me 
so how do we win?  

I’m sick of losing soul mates 
won’t be alone again 
I can finally see 
you’re as fucked up as me 
so how do we win?  

e|-----------------------------------------| 
B|-----------------------------------------| 
G|-----------------------------------------| 
D|-------0----0-----0----0----0----0----0--| 
A|-----------------------------------------| 
E|----2-----3----5----7----6----1----5-----| 

We will grow old as friends 
I’ve promised that before 
so what’s one more? 
in our grey haired circle waiting for the end 

time and hearts will wear us thin 
so which path will you take 
cause we both know a break 
does exactly what it says on the tin 

e|---------------------------| 
B|---------------------------| 
G|---------------------------| 
D|-------0----0-----0----0---| 
A|---------------------------| 
E|---7-----5-----2-----3-----|  


what the hell would I be 
without you 

brave face talk so lightly  
hide the truth 

e|-----------------------------| 
B|-----------------------------| 
G|-----------------------------| 
D|-------0----0-----0----0----0| 
A|-----------------------------| 
E|---7-----5-----10----2----3--|  

now I’m sick of losing soul mates 
so where do we begin 
I can finally see 
you’re as fucked up as me 
so how do we win?  

I’m sick of losing soul mates 
won’t be alone again 
I can finally see 
you’re as fucked up as me 
so how do we win?  

e|-----------------------------------------| 
B|-----------------------------------------| 
G|-----------------------------------------| 
D|-------0----0-----0----0----0----0----0--| 
A|-----------------------------------------| 
E|----2-----3----5----7----6----1----5-----| 

I won't take no for an answer 

e|---------------------------| 
B|---------------------------| 
G|---------------------------| 
D|-------0----0-----0----0---| 
A|---------------------------| 
E|---7-----5-----2-----3-----|  



now I’m sick of losing soul mates 
so where do we begin 
I can finally see 
you’re as fucked up as me 
so how do we win?  

I’m sick of losing soul mates 
won’t be alone again 
I can finally see 
you’re as fucked up as me 
so how do we win?  

e|-----------------------------------------| 
B|-----------------------------------------| 
G|-----------------------------------------| 
D|-------0----0-----0----0----0----0----0--| 
A|-----------------------------------------| 
E|----2-----3----5----7----6----1----5-----| 
  

top 5 | doddleoddle
top rock'n roll
Outras músicas do artista letras do(a) Doddleoddle
2.
She
Top cifras »Top artistas »
Petaxxon Comunicação Online
Cifras.com.br - Melhor e mais completo site de cifras e tablaturas do Brasil
Mais de 1 milhão de acordes de músicas cadastradas desde 2003
As informações contidas no nosso site são colaborações de seus usuários e podem conter erros, sendo assim, não nos responsabilizamos sobre nenhuma destas.
close
menos
mais
close
Cor dos acordes:

Cor da letra:

 

save
close
close
 
redimensionar