Cifras e Tablaturas
Dominio Público

Dominio Público

Cuitelinho (para Violão Solo)

Cifras Cancelar Versão de Impressão
cifras

Dominio Público - Cuitelinho (para Violão Solo)

fixar na tela  
Exibindo: vídeo-aula ver clipes redimensionar

Tom:

  
------2--2--------------0--2-3--5-5--3-2--0------------0------------------ 
-----------------3-----------------------------------3--2-3---------3----------- 
---2--------2-----2----------------------------------------------0-----0-------- 
-----------0------------0------------0-------------0-------------------------------- 
------------------------------------------------------------------0------------------ 
------------------------------------------------------------------------------------- 
 
 
-----------------------------------------2--2--------------0--2-3--5-5--3-2-- 
----------2--------------------------3------------3-------------------------------- 
------0-----0---------0--------2------------2-----2----------------------------- 
--------------------2-----2-----------------0------------0------------0------------ 
---0------------0------------0----------------------------------------------------- 
-------------------------------------------------------------------------------------- 
 
 
---0------------0------------------------------------------------------------------- 
------3--2-3---------3------------2------------2-2--2-0--0------------------ 
--------------------0-----0-----0-----0--------------------------2--2-----2---- 
----0-------------------------------------------2--------------------------2-----2- 
------------------0------------0------------0-------------0-------------0----------- 
-------------------------------------------------------------------------------------- 
 
 
---------------------------0--3-5--3-2--0--------------------------------------- 
------------------------2--------------------------3-------3------------------------ 
----------2--------2--------------------------0-----0----2------------------------ 
------2-----2-------------------------------0--------------0------------------------ 
---0------------0-------------0----------------------------------------------------- 
-------------------------------------------------------------------------------------- 
 
  

top 5 | dominio público
top infantis
Outras músicas do artista letras do(a) Dominio Público
Top cifras »Top artistas »
Petaxxon Comunicação Online
Cifras.com.br - Melhor e mais completo site de cifras e tablaturas do Brasil
Mais de 1 milhão de acordes de músicas cadastradas desde 2003
As informações contidas no nosso site são colaborações de seus usuários e podem conter erros, sendo assim, não nos responsabilizamos sobre nenhuma destas.
close
menos
mais
close
Cor dos acordes:

Cor da letra:

 

save
close
close
 
redimensionar