Cifras e Tablaturas
Dominique A

Dominique A

Le Metier De Faussaire

Cifras Cancelar Versão de Impressão
cifras

Dominique A - Le Metier De Faussaire

fixar na tela  
Exibindo: vídeo-aula ver clipes redimensionar
  
   Bm 
e |--------------------------|--------------------------| 
B |--------------------------|--------------------------| 
G |--------------------------|--------------------------| 
D |------------4--5--4-------|--------------4--5--4-----| 
A |-2-----5--------------5---|--2-----5-----------------| 
E |--------------------------|--------------------------|  x8 

    D 
e |-------(2)----------------|--------------------------| 
B |-------(3)----------------|--------------------------| 
G |-------(2)----2--4--2-----|--------------2--4--2-----| 
D |--0----(0)----------------|--0-----4--------------4--| 
A |--------------------------|--------------------------| 
E |--------------------------|--------------------------| 


   Bm 
e |--------------------------|--------------------------| 
B |--------------------------|--------------------------| 
G |--------------------------|--------------------------| 
D |------------4--5--4-------|--------------4--5--4-----| 
A |-2-----5--------------5---|--2-----5-----------------| 
E |--------------------------|--------------------------| 

   F# 
e |--------------------------| 
B |--------------------------| 
G |------------3--4--3-------| 
D |---------------------4----| 
A |-------4------------------| 
E |-2------------------------|  x4 


   Riff Gtr 2 
e|--------------------------|-----------|     |-------------------|-----------| 
B|--------------------------|-----------|     |-------------------|-----------| 
G|----12-12-12-12-12-12-12--|-11--------|     |----9-9-9-9-9-9-9--|--7--------| 
D|--------------------------|-----------|     |-------------------|-----------| 
A|--------------------------|-----------|     |-------------------|-----------| 
E|--------------------------|-----------|     |-------------------|-----------| 
  

cifra enviadasem correções
enviado porenviada por:marcnagel
top 5 | dominique a
top rock alternativo
Outras músicas do artista letras do(a) Dominique A
Top cifras »Top artistas »
Petaxxon Comunicação Online
Cifras.com.br - Melhor e mais completo site de cifras e tablaturas do Brasil
Mais de 1 milhão de acordes de músicas cadastradas desde 2003
As informações contidas no nosso site são colaborações de seus usuários e podem conter erros, sendo assim, não nos responsabilizamos sobre nenhuma destas.
close
menos
mais
close
Cor dos acordes:

Cor da letra:

 

save
close
close
 
redimensionar