Cifras e Tablaturas
Dorothy

Dorothy

Bang Bang Bang

Cifras Cancelar Versão de Impressão
cifras

Dorothy - Bang Bang Bang

fixar na tela  
Exibindo: vídeo-aula ver clipes redimensionar

Tom:

  
Intro 

e|----------3----------------------------------------------------------------| 
B|----3h5-------3\1-----------1---------1------------------------------------| 
G|--------------------2---0h2---2---0h2-----2--------------------------------| 
D|---------------------------------------------------------------------------| 
A|--------0---0-----0---0---------0-------0----------------------------------| 
E|---------------------------------------------------------------------------| 


Verse 

e|----------3----------------------------------------------------------------| 
B|----3h5-------3\1-----------1---------1------------------------------------| 
G|--------------------2---0h2---2---0h2-----2--------------------------------|  x4 
D|---------------------------------------------------------------------------| 
A|--------0---0-----0---0---------0-------0----------------------------------| 
E|---------------------------------------------------------------------------| 

verse 1 
      Lay your head down  Down,     down 
      Lay your head down  Down,     down 
      My love's gonna pull you down Down,  down 
      One shot and you're 6 ft down Down, down 

verse 2 
      Lay your head down  Down,     down 
      Take my lovin' now  Now,      now 
      My lips gonna make you die, Die, die 
      One kiss and you say goodbye, Bye, bye 

verse 3 
      Lay your head down  Down,     down 
      Lay your head down      Down! 



Chorus 

e|--------------------------------------------------------------------------------| 
B|---------------------------------------------------------------------------1----| 
G|-----0---------------------------0-2-2-----0---------------------------0-2---2--| 
D|-0h2---2p0---------------------2-------0h2---2p0---------------------2----------|   
A|-----------0-0-----0---0-3-0-3-------------------0-0-----0---0-3-0-3------------| 
E|---------------0h3---3-------------------------------0h3---3--------------------| 

BANG BANG BANG!                        I'd do you where you stand           So take a look at me (yeah) 


e|-----------------------------------------------------------------------| 
B|-----------------------------------------------------------------------| 
G|-----0--------------------------0-2-2-----0----------------------------| 
D|-0h2---2p0--------------------2-------0h2---2p0------------------------| 
A|-----------0-0-----0--0-3-0-3-------------------0-0-----0---0-3-0---0--| 
E|---------------0h3--3-------------------------------0h3---3-------3----| 

                                Bang bang bang Bang bang bang 


Bridge/Solo 

e|-------15----------------------------------------15-17-17------------------| 
B|-15h17----17p15----------------------15----15-17---------------------------| 
G|----------------17-14----14-17-14-17----17---------------------------------| 
D|----------------------17---------------------------------------------------| 
A|---------------------------------------------------------------------------| 
E|---------------------------------------------------------------------------| 

e|-------15------------------------------------------------------------------| 
B|-15h17----17p15----------------------15------------------------------------| 
G|----------------17-14----14-17-14-17----17-14----14------------------------| 
D|----------------------17----------------------17---------------------------| 
A|---------------------------------------------------------------------------| 
E|---------------------------------------------------------------------------| 



Outro 

e|----------3----------------------------------------------------------------| 
B|----3h5-------3\1-----------1---------1------------------------------------| 
G|--------------------2---0h2---2---0h2-----2--------------------------------| 
D|---------------------------------------------------------------------------| 
A|--------0---0-----0---0---------0-------0----------------------------------| 
E|---------------------------------------------------------------------------| 



************************************ 

| h  Hammer-on 
| \  Slide down 
| p  Pull-off 

************************************ 
  

top 5 | dorothy
top rock'n roll
Outras músicas do artista letras do(a) Dorothy
Top cifras »Top artistas »
Petaxxon Comunicação Online
Cifras.com.br - Melhor e mais completo site de cifras e tablaturas do Brasil
Mais de 1 milhão de acordes de músicas cadastradas desde 2003
As informações contidas no nosso site são colaborações de seus usuários e podem conter erros, sendo assim, não nos responsabilizamos sobre nenhuma destas.
close
menos
mais
close
Cor dos acordes:

Cor da letra:

 

save
close
close
 
redimensionar