Cifras e Tablaturas
Dragon Ball Z

Dragon Ball Z

Cha la head cha la

Cifras Cancelar Versão de Impressão
cifras

Dragon Ball Z - Cha la head cha la

fixar na tela  
Exibindo: vídeo-aula ver clipes redimensionar
  Intro  
---------------------------------------------------------------- 
12t-7p5p0h5h7--12t-7p5p0h5h7---12t-7---------------------------- 
---------------------------------------------------------------- 
---------------------------------------------------------------- 
---------------------------------------------------------------- 
---------------------------------------------------------------- 

---------------------------------------------------------------- 
--10--9------10--9---10---9----9---7-7--7--5-5------------------ 
--9---9--9---9---9---9----9----9---7-7--7--5-5------------------ 
---------9------------------------------------------------------ 
---------------------------------------------------------------- 
0----------0---0---0----0----0---0----0------------------------- 


Parte a 

---------------------------------------------------------------- 
---------------------------------------------------------------- 
------------------------7/9----------7/9------------------------ 
-7-6----7-6----7/9-9-7------7/9-9-7----------------------------- 
-----7------7--------------------------------------------------- 
---------------------------------------------------------------- 

---------------------------------------------------------------- 
---------------------------------------------------------------- 
---------------------------------------------------------------- 
4/5-5-5--7-7/9-10--10/12-10-10-9-9-7-5-7/9---------------------- 
---------------------------------------------------------------- 
---------------------------------------------------------------- 


---------------------------------------------------------------- 
---------------------------------------------------------------- 
----------------------------7/9----------7/9-------------------- 
5/7-6-----5/7-6----7/9-9-7------7/9-9-7------------------------- 
-------7--------7----------------------------------------------- 
---------------------------------------------------------------- 

---------------------------------------------------------------- 
---------------------------------------------------------------- 
---------------------------------------------------------------- 
5-5-5-7-9-10-12-10-9-10-9--------------------------------------- 
---------------------------------------------------------------- 
---------------------------------------------------------------- 

Parte b 

---------------------------------------------------------------- 
---------------------------------------------------------------- 
---------------------------------------------------------------- 
11----11-9-7-6-4-6---6----7-6---7-6------7-6---7-6-7-9-9-------- 
---11--------------7----7-----7-----7--7-----7------------------ 
---------------------------------------------------------------- 


Refrao  

---------------------------------------------------------------- 
----------7-7-8-7---7-8-7-------8-8-7-7------------------------- 
7-9-7-7-9---------9-------9-9-7---------9-9-7-9----------------- 
---------------------------------------------------------------- 
---------------------------------------------------------------- 
---------------------------------------------------------------- 

---------------------------------------------------------------- 
----------7-7-8-7---7-8-7--------------------------------------- 
7-9-7-7-9---------9-------9-9-7----7-9-10-10-10----------------- 
---------------------------------9------------------------------ 
---------------------------------------------------------------- 
---------------------------------------------------------------- 
  

top 5 | dragon ball z
top infantis
Outras músicas do artista letras do(a) Dragon Ball Z
Top cifras »Top artistas »
Petaxxon Comunicação Online
Cifras.com.br - Melhor e mais completo site de cifras e tablaturas do Brasil
Mais de 1 milhão de acordes de músicas cadastradas desde 2003
As informações contidas no nosso site são colaborações de seus usuários e podem conter erros, sendo assim, não nos responsabilizamos sobre nenhuma destas.
close
menos
mais
close
Cor dos acordes:

Cor da letra:

 

save
close
close
 
redimensionar