Cifras e Tablaturas
Dreamt Theaher

Dreamt Theaher

The silent man Live scenes from New York

Cifras Cancelar Versão de Impressão Print

Dreamt Theaher - The silent man Live scenes from New York

Tom: E

  • 0:00 / 0:00
  			 
  
 
  W          W          W          W 
|----------|----------|----------|------| 
|----------|----------|----------|------| 
|----------|----------|----------|------| 
|----------|----------|----------|------| 
|----------|----------|----------|------| 
|----------|----------|----------|------| 
 
 
  E E E E E E E E   W          E E E E E E E E   W 
|-----0-----------|----------|-----------------|-0----| 
|---0-------5-----|-5--------|-2---5---2---5---|-4----| 
|-1-----2-4---4-4-|-4--------|---4---4---4---4-|-4----| 
|-----------------|-7--------|-----------------|------| 
|-----------------|----------|-----------------|------| 
|-----------------|----------|-----------------|------| 
 
 
  E E E E E E E E    W           E E E  E  E  E  Q     S  E.  +Q    +H 
|-----------------|-----------|---------------------|----------------------| 
|-----5-----------|-----------|---------------------|----------------------| 
|---4-------9-----|--9--------|------9--------------|----------------------| 
|-6-----7-9---9-9-|--9--------|-11-9---11-13----14--|-14-14--(14)--(14)----| 
|-----------------|-12--------|--------------14-----|-14-14--(14)--(14)----| 
|-----------------|-----------|---------------------|-12-------------------| 
 
 
  S E. +E  E +E  E +E  S S   S E. +E  E +E  E +E  S S 
|---0--(0)-------0-(0)-----|--------------------------| 
|---0--(0)-------0-(0)-0-0-|----------0-(0)-0-(0)-0---| 
|---1--(1)-2-(2)-1-(1)-1-1-|---4--(4)-2-(2)-2-(2)-2-2-| 
|-2--------2-(2)-2-(2)-2-2-|-4-7--(7)-4-(4)-4-(4)---4-| 
|-2--------2-(2)-2-(2)-----|-4--------------4-(4)-----| 
|-0--------------0-(0)-----|-0------------------------| 
 
 
  S E. +E  E +E  E +E  S S   S E. +E  E +E  E +E  S S 
|--------------------------|--------------------------| 
|---2--(2)-------2-(2)-0-2-|---4--(4)-4-(4)-4-(4)-0-4-| 
|-2-4--(4)-2-(2)-2-(2)-2-2-|-4-4--(4)-4-(4)-4-(4)-4-4-| 
|-2--------2-(2)-2-(2)-----|-4------------------------| 
|--------------------------|--------------------------| 
|-0------------------------|-0--------0-(0)-0-(0)-----| 
 
 
  S E. +E  E +E  E +E  S S   S E. +E  E +E  E +E  S S   S S S S Q  S S S S Q 
|---0--(0)-------0-(0)-----|--------------------------|---------0----------0--| 
|---0--(0)-------0-(0)-0-0-|----------0-(0)-0-(0)-0---|-----2-2-2------4-4-4--| 
|---1--(1)-2-(2)-1-(1)-1-1-|---4--(4)-2-(2)-2-(2)-2-2-|-----2-2-4------4-4-4--| 
|-2--------2-(2)-2-(2)-2-2-|-4-7--(7)-4-(4)-4-(4)---4-|---2-2-2----2-4-4-4----| 
|-2--------2-(2)-2-(2)-----|-4--------------4-(4)-----|-4---------------------| 
|-0--------------0-(0)-----|-0------------------------|-----------------------| 
 
 
  Q.   E +E  S S Q    H.      Q    Q  Q  E E E E   +Q   Q  +E  E E S S 
|-0----0-(0)-0-0-0--|-0----------|----3----3---2-|-(2)--2--(2)-2-2-----| 
|-0----0-(0)-0-0-0--|-0----------|----3----3---3-|-(3)--3--(3)-3-3-3---| 
|-1----1-(1)-1-1-1--|-1----------|----0----0---2-|-(2)--2--(2)-2-2-2-2-| 
|-2----4-(4)-4-4-4--|-4----------|----0----0---0-|-(0)---------------0-| 
|-2----2-(2)-2-2-2--|-2----------|---------------|---------------------| 
|-0----0-(0)-0-0-0--|-0----------|-3-----3---3---|---------------------| 
 
 
  Q  Q  E E +E  E   +Q   Q  +E  S S E E   Q  Q  E E E E   +Q   Q  +E  E E S S 
|-----------------|-------------1-1-1-0-|----3----3---2-|-(2)--2--(2)-2-2-----| 
|---------5-(5)-3-|-(3)--3--(3)-1-1-1-0-|----3----3---3-|-(3)--3--(3)-3-3-3---| 
|----4----4-(4)-0-|-(0)--0--(0)-0-0-0-0-|----0----0---2-|-(2)--2--(2)-2-2-2-2-| 
|----5----5-(5)-2-|-(2)--2--(2)-3-3-3---|----0----0---0-|-(0)---------------0-| 
|-4--7--4-7-(7)-3-|-(3)---------3-3-3---|---------------|---------------------| 
|-----------------|---------------------|-3-----3---3---|---------------------| 
 
 
  Q  Q  E E +E  E   +Q   Q  +E  S S E E 
|-----------------|-------------1-1-1-0-| 
|---------5-(5)-3-|-(3)--3--(3)-1-1-1-0-| 
|----4----4-(4)-0-|-(0)--0--(0)-0-0-0-0-| 
|----5----5-(5)-2-|-(2)--2--(2)-3-3-3---| 
|-4--7--4-7-(7)-3-|-(3)---------3-3-3---| 
|-----------------|---------------------| 
 
 
  E E E E +E  E E E   E E E E +E  E Q 
|-------------------|-------------------| 
|-------------5-----|-------------------| 
|-------------------|-------5-(5)-------| 
|-----4-5-(5)---5-4-|-----5---------5---| 
|---2---------------|---7---------------| 
|-0-----------------|-5-----------5-----| 
 
 
  E E E E +E  E +Q     E E E  E  +Q   E E 
|--------------------|--------------------| 
|-------3-(3)-5-(5)--|--------------------| 
|--------------------|----------------9---| 
|---4-5--------------|--------9--(9)----9-| 
|--------------------|-----9-10-(10)------| 
|-5------------------|-0-7----------------| 
 
 
  S E. +Q   E E +Q     S S S S +Q   +H 
|--------------------|-------2-(2)--(2)----| 
|---3--(3)----3-(3)--|-----3---------------| 
|-0------------------|---2-----------------| 
|-4---------5--------|---------------------| 
|-3------------------|-3-------------------| 
|--------------------|---5-----------------| 
 
 
  Q  Q  E E E E   +Q   Q  +E  S S S S S S 
|----3----3---2-|-(2)--2--(2)-2-3-3-3-3-2-| 
|----3----3---3-|-(3)--3--(3)-3---3-3-3-3-| 
|----0----0---2-|-(2)--2--(2)-2---2-2-2-2-| 
|----0----0---0-|-(0)---------------------| 
|---------------|-------------------------| 
|-3-----3---3---|-------------------------| 
 
 
  Q  Q  E E +E  E   +Q   Q  +E  E E E 
|-----------------|-------------1-1-0--| 
|---------5-(5)-3-|-(3)--3--(3)-1-1-0--| 
|----4----4-(4)-0-|-(0)--0--(0)-0-0-0--| 
|----5----5-(5)-2-|-(2)--2--(2)-3-3----| 
|-4--7--4-7-(7)-3-|-(3)---------3-3----| 
|-----------------|--------------------| 
 
 
  Q  Q  E E E E   +Q.   S S S S S S +S  S  S  S 
|----3----3---2-|-(2)---------------------------| 
|----3----3---3-|-(3)---------3-5-7-(7)---------| 
|----0----0---2-|-(2)-------2-----------7-------| 
|----0----0---0-|-(0)---0-2-------------7--9--9-| 
|---------------|-------------------------12-10-| 
|-3-----3---3---|-------------------------10----| 
 
 
  Q   Q  E  E  +E  E   +Q   Q  +E  E E E 
|--------------------|-------------1-1----| 
|------------------3-|-(3)--3--(3)-1-1----| 
|-----------9--(9)-0-|-(0)--0--(0)-0-0----| 
|-----9-----9--(9)-2-|-(2)--2--(2)-3-3----| 
|----10----10-(10)-3-|-(3)---------3-3----| 
|-9--12--9-12-(12)---|--------------------| 
 
 
  E E E E +E  E E E   E E E E +H       E E E E H      E E E  E  +Q   E E 
|-------------------|----------------|--------------|--------------------| 
|-------------5-----|----------------|-------3-5----|--------------------| 
|-------------------|-------5-(5)----|--------------|--------------------| 
|-----4-5-(5)---5-4-|-----5----------|---4-5--------|--------------------| 
|---2---------------|---7------------|--------------|-----9-10-(10)--9---| 
|-0-----------------|-5--------------|-5------------|-0-7--------------7-| 
 
 
  E E  E  E  +Q.    E    S  E.  +Q    +H 
|---------------------|----------------------| 
|---------------------|----------------------| 
|---------------------|----11--(11)--(11)----| 
|--------12-(12)------|----12--(12)--(12)----| 
|---9-10-----------10-|-12-------------------| 
|-8-------------------|----------------------| 
 
 
  S E. +E  E +E  E +E  S S   S E. +E  E +E  E +E  S S 
|---0--(0)-------0-(0)-----|--------------------------| 
|---0--(0)-------0-(0)-0-0-|----------0-(0)-0-(0)-0---| 
|---1--(1)-2-(2)-1-(1)-1-1-|---4--(4)-2-(2)-2-(2)-2-2-| 
|-2--------2-(2)-2-(2)-2-2-|-4-7--(7)-4-(4)-4-(4)---4-| 
|-2--------2-(2)-2-(2)-----|-4--------------4-(4)-----| 
|-0--------------0-(0)-----|-0------------------------| 
 
 
  S E. +E  E +E  E +E  S S   S E. +E  E +E  E +E  S S 
|--------------------------|--------------------------| 
|---2--(2)-------2-(2)-0-2-|---4--(4)-4-(4)-4-(4)-0-4-| 
|-2-4--(4)-2-(2)-2-(2)-2-2-|-4-4--(4)-4-(4)-4-(4)-4-4-| 
|-2--------2-(2)-2-(2)-----|-4------------------------| 
|--------------------------|--------------------------| 
|-0------------------------|-0--------0-(0)-0-(0)-----| 
 
 
  S E. +E  E +E  E +E  S S   S E. +E  E +E  E +E  S S 
|---0--(0)-------0-(0)-----|--------------------------| 
|---0--(0)-------0-(0)-0-0-|----------0-(0)-0-(0)-0---| 
|---1--(1)-2-(2)-1-(1)-1-1-|---4--(4)-2-(2)-2-(2)-2-2-| 
|-2--------2-(2)-2-(2)-2-2-|-4-7--(7)-4-(4)-4-(4)---4-| 
|-2--------2-(2)-2-(2)-----|-4--------------4-(4)-----| 
|-0--------------0-(0)-----|-0------------------------| 
 
 
  S S S S Q  S S S S Q    W          S E. +E  E +E  E +E  S S 
|---------0----------0--|-0--------|---0--(0)-------0-(0)------| 
|-----2-2-2------4-4-4--|-0--------|---0--(0)-------0-(0)-0-0--| 
|-----2-2-4------4-4-4--|-1--------|---1--(1)-2-(2)-1-(1)-1-1--| 
|---2-2-2----2-4-4-4----|-4--------|-2--------2-(2)-2-(2)-2-2--| 
|-4---------------------|-2--------|-2--------2-(2)-2-(2)------| 
|-----------------------|-0--------|-0--------------0-(0)------| 
 
 
  S E. +E  E +E  E +E  S S   S E. +E  E +E  E +E  S S 
|--------------------------|--------------------------| 
|----------0-(0)-0-(0)-0---|---2--(2)-------2-(2)-0-2-| 
|---4--(4)-2-(2)-2-(2)-2-2-|-2-4--(4)-2-(2)-2-(2)-2-2-| 
|-4-7--(7)-4-(4)-4-(4)---4-|-2--------2-(2)-2-(2)-----| 
|-4--------------4-(4)-----|--------------------------| 
|-0------------------------|-0------------------------| 
 
 
  S E. +E  E +E  E +E  S S   S E. +E  E +E  E +E  S S 
|--------------------------|---0--(0)-------0-(0)-----| 
|---4--(4)-4-(4)-4-(4)-0-4-|---0--(0)-------0-(0)-0-0-| 
|-4-4--(4)-4-(4)-4-(4)-4-4-|---1--(1)-2-(2)-1-(1)-1-1-| 
|-4------------------------|-2--------2-(2)-2-(2)-2-2-| 
|--------------------------|-2--------2-(2)-2-(2)-----| 
|-0--------0-(0)-0-(0)-----|-0--------------0-(0)-----| 
 
 
  S E. +E  E +E  E +E  S S   S S S S Q  S S S S Q    W 
|--------------------------|---------0----------0--|-0----| 
|----------0-(0)-0-(0)-0---|-----2-2-2------4-4-4--|-0----| 
|---4--(4)-2-(2)-2-(2)-2-2-|-----2-2-4------4-4-4--|-1----| 
|-4-7--(7)-4-(4)-4-(4)---4-|---2-2-2----2-4-4-4----|-4----| 
|-4--------------4-(4)-----|-4---------------------|-2----| 
|-0------------------------|-----------------------|-0----| 
 
 
  Q  E E +E  E S S E   +E  E +E  S S E E S S S S   Q  S S S S Q  S S E 
|-2----0-(0)-2-----0-|-(0)-1-(1)-1-1-1-0-----7-7-|-7------5-5-5----3-3-| 
|-3----3-(3)-3-----3-|-(3)-3-(3)-3-3-3-3-3---8-8-|-8------7-7-7----5-5-| 
|-2----2-(2)-2-----3-|-(3)-3-(3)-3-3-3-3-3-4-7-7-|-7----7-7-7-7----5-5-| 
|-0--0-0-(0)---0-0-0-|-(0)-0-(0)-0---0-0-0-5-0---|-0------0---0------0-| 
|-0--0---------0-0---|---------------------------|----5-5--------5-----| 
|--------------------|---------------------------|----5----------5-----| 
 
 
                        2/4        4/4 
  +E  E S S E Q  S S E   Q  E S S   Q  E E E E E E   +E  E S S E +E  E S S S S 
|-(3)-3----------0-0---|----------|--------------1-|-(1)-1-----1-(1)-0-0-0-7-7-| 
|-(5)-0-----1-1--1-1-3-|-3--3-5---|-3------------1-|-(1)-1-----1-(1)-1-1-1-8-8-| 
|-(5)-5-5-5-4-4--4-4-4-|-4--4-4---|-2------------3-|-(3)-3-3-0-0-(0)-0-0-0-7-7-| 
|-(0)-0-0-0-5-5------5-|-5--5-5---|-0------------3-|-(3)-3-3-0-3-(3)-2-2---0---| 
|-----0-----0-0------0-|-0--0-5---|-0----------0-1-|-(1)-1-1-0-3-(3)-3-3-------| 
|----------------------|--------0-|-2--2-0-2-3-----|---------------------------| 
 
 
                                              2/4 
  Q  S S S S Q  S S E   +E  E S S E Q  S S E   Q  Q 
|-7------5-5-5------3-|-(3)-3----------0-0---|-------| 
|-8------7-7-7------5-|-(5)-0-----1-1--1-1-3-|-3--3--| 
|-7------7-7-7------5-|-(5)-5-5-5-4-4--4-4-4-|-4--4--| 
|-0------0---0------0-|-(0)-0-0-0-5-5------5-|-5--5--| 
|----5-5--------5-5---|-----0-----0-0------0-|-0--0--| 
|------5--------5-5---|----------------------|-------| 
 
 
 4/4 
  E E +E   S  S S S S S S S S S   E S S S S S S S S S S S S S S 
|---5-(5)-10--------------------|-------------------------------| 
|------------10-8---8-----------|-------------------------------| 
|-----------------9---9-7-------|-------------------------------| 
|-------------------------9-7-7-|-5-7-5---5-------5-7---7-----5-| 
|-------------------------------|-------7---7-5-7-----7---5-7---| 
|-------------------------------|-------------------------------| 
 
 
  S E. S S S S S E. S S S S   E S S S S S S S S S S S E.   Q  H    S S E 
|---------------------------|-5-7-5-3-----3--------------|----3--------2--| 
|---------------------------|---------5-3---5-3----------|----3--------3--| 
|------7-7-7--------7---7---|-------------------4-2-4----|----0--------2--| 
|-7-9------------9----7---7-|-------------------------5--|----0--------0--| 
|--------------7------------|----------------------------|----------------| 
|---------------------------|----------------------------|-3-------3------| 
 
 
  +Q   Q  +Q.   S S   Q  Q  E E S S E   +Q   Q  +Q.    E 
|-(2)--2--(2)-------|---------0-0-----|---------------10-| 
|-(3)--3--(3)---3-3-|----5--5-0-0---3-|-(3)--3--(3)------| 
|-(2)--2--(2)---2-2-|----4--4-0-0---0-|-(0)--0--(0)------| 
|-(0)---------------|----5--5-2-----2-|-(2)--2--(2)------| 
|-------------------|-4--7--7-4-----3-|-(3)--------------| 
|-------------------|-----------------|------------------| 
 
 
   +E   S  S  S  S  S  S S S S S S S S S   Q  S S S S S  S  S  S  Q 
|-(10)-12-10-----------------------------|-3------3-5-7-10-12-14-17--| 
|------------12-10-12-10-8---8---------5-|----3-5--------------------| 
|--------------------------9---9-7---7---|---------------------------| 
|----------------------------------9-----|---------------------------| 
|----------------------------------------|---------------------------| 
|----------------------------------------|---------------------------| 
 
 
   S  S  S  S  S  S  S  S S S S S  S S E   +H     H      Q  H    S S E 
|-17-15-14-15---------------0-5----------|-------------|----3--------2--| 
|----19-17-19-17----------3-3-8-7--------|-------------|----3--------3--| 
|-------------19-18-------6-----9--7-----|-------------|----0--------2--| 
|----------------21-19------------11-7-5-|-(5)---------|----0--------0--| 
|-------------------22-21----------------|-------------|----------------| 
|----------------------24----------------|-------------|-3-------3------| 
 
 
  +Q   Q  +Q.   E   H    E E S S E   +Q   Q  +Q.   S S   W 
|-(2)--2--(2)-----|-0----0-0-0-----|---------------1---|------| 
|-(3)--3--(3)---3-|-0----0-0-0---3-|-(3)--3--(3)---1---|------| 
|-(2)--2--(2)---2-|-0----0-0-0---0-|-(0)--0--(0)---0---|------| 
|-(0)-----------0-|-2----2-2-----2-|-(2)--2--(2)-------|------| 
|-----------------|-4------4-----3-|-(3)---------------|------| 
|-----------------|----------------|-------------------|------| 
 
 
  W          W          W          W 
|----------|----------|----------|------| 
|----------|----------|----------|------| 
|----------|----------|----------|------| 
|----------|----------|----------|------| 
|----------|----------|----------|------| 
|----------|----------|----------|------| 
 
 
  W          W          W          Q  E E +E  E E E 
|----------|----------|----------|------------------| 
|----------|----------|----------|------5-(5)-------| 
|----------|----------|----------|------------4-----| 
|----------|----------|----------|----2---------6---| 
|----------|----------|----------|----------------7-| 
|----------|----------|----------|-0----------------| 
 
 
  Q  E E +E  E E E   Q  E E +E  E E E   Q  E E +E  E E E   Q  E E +E  E E E 
|------------------|------------------|------------------|------------------| 
|------------------|------5-(5)---2---|------5-(5)---4---|------5-(5)-------| 
|------9-(9)-------|------------4---2-|----4-------4---4-|------------4-----| 
|------------9-7---|----7-------------|------------------|----2---------6---| 
|----9-----------9-|------------------|------------------|----------------7-| 
|-0----------------|-0----------------|-0----------------|-0----------------| 
 
 
  Q  E E +E  E E E   E E E E E E E E   S E. E E +E  E Q    Q  E E +E  E E E 
|------------------|-----------------|--------0-(0)------|------------------| 
|------------------|---------------4-|------0-------0----|------5-(5)-------| 
|------9-(9)-------|-------6-----4---|---1------------1--|------------4-----| 
|------------9-7---|-----7-----4-----|-2-----------------|----2---------6---| 
|----9-----------9-|---7-------------|-2-----------------|----------------7-| 
|-0----------------|-0-------0-------|-0-----------------|-0----------------| 
 
 
  Q  E E +E  E E E   Q  E E +E  E E E   Q  E E +E  E E E   Q  E E +E  E E E 
|------------------|------------------|------------------|------------------| 
|------------------|------5-(5)---2---|------5-(5)---4---|------5-(5)-------| 
|------9-(9)-------|------------4---2-|----4-------4---4-|------------4-----| 
|------------9-7---|----7-------------|-4----------------|----2---------6---| 
|----9-----------9-|-7----------------|------------------|----------------7-| 
|-9----------------|------------------|------------------|-0----------------| 
 
 
                         Q=86  Q=86  Q=76 
                    6/4                    4/4 
  Q  E E +E  E E E   E E E E E E E E H      W 
|------------------|----------------------|------*| 
|------------------|---------------4------|------*| 
|------9-(9)-------|-------6-----4--------|------*| 
|------------9-7---|-----7-----4----------|-2----*| 
|----9-----------9-|---7-------------4----|------*| 
|-9----------------|-0-------0------------|------*| 
 
 
 
 

    	

enviado porenviado por: Vallim guitar
cifra enviadaCorrigida por: sem correções
logo top cifrasComente
ico música do artistaMúsicas deste artista
ico curtiuCurtiu?
ico destaqueDestaque
Petaxxon Comunicação Online

Cifras.com.br - Melhor e mais completo site de cifras e tablaturas do Brasil Mais de 1 milhão de acordes de músicas cadastradas desde 2003
As informações contidas no nosso site são colaborações de seus usuários e podem conter erros, sendo assim, não nos responsabilizamos sobre nenhuma destas.

close
menos
mais
close
Cor dos acordes:

Cor da letra:

close
Alinhar acordes a direita Alinhar acordes a esquerda Alinhar acordes em baixo Alinhar acordes no topo
close
  Mostrar todos os acordes Esconder acordes muito fáceis Esconder acordes fáceis Esconder acordes intermediários
redimensionar
glossário