Cifras e Tablaturas
Eagles

Eagles

Hotel California (solo)

Cifras Cancelar Versão de Impressão Print

Eagles - Hotel California (solo)

Tom:

  • 0:00 / 0:00
  			
Part 1 
|----------------------------------------------------------------| 
|-----10h12-12b-10-12----------7------0h3p0----------------------| 
|-/11-----------------/9~--7-9---7----------2b-------------------| 
|----------------------------------8-----------------------------| 
|----------------------------------------------------------------| 
|----------------------------------------------------------------| 
|--------------------------------------10----------------7---10b-| 
|-----7--------------7-----------10b12----12r10--7-10-7b---7-----| 
|-7-9---7--------7-9---7-----------------------------------------| 
|---------9-8-9----------9-8-9-----------------------------------| 
|----------------------------------------------------------------| 
|----------------------------------------------------------------| 
|-10b--7-------10-----------------10-----------------------------| 
|--------10b12----12r10--8---------------------------------------| 
|----------------------------9b11----11r9--7---7/6-7-------------| 
|--------------------------------------------7-------------------| 
|----------------------------------------------------------------| 
|----------------------------------------------------------------| 
|----------------------------------------------7-----------------| 
|-----7b-7br--------7b-7b-7br--------7-10----7-------------------| 
|-7h9--------9-7-9------------9-7-9b------9b-----9br--7-9b-------| 
|----------------------------------------------------------------| 
|----------------------------------------------------------------| 
|----------------------------------------------------------------| 
Part 2 
|---------------7------7------7----------------------------------| 
|-----7-10----7------7------7---------------------7b--5-7-3b-----| 
|-9b-------9b-----9b-----9b-----9b11r9--7-9-7-9b-------------4---| 
|----------------------------------------------------------------| 
|----------------------------------------------------------------| 
|----------------------------------------------------------------| 
|-----7------------10------------------------------------17------| 
|-10b---10-7-10/12----10-12-11-10-9------12-15-17-15-17b----r17--| 
|-----------------------------------14b--------------------------| 
|----------------------------------------------------------------| 
|----------------------------------------------------------------| 
|----------------------------------------------------------------| 
|--------------15-16-17--19----------------------17-17-----------| 
|-15-17-15-17b--------------r17-15-17--17p15-17b-------r17-------| 
|----------------------------------------------------------------| 
|----------------------------------------------------------------| 
|----------------------------------------------------------------| 
|----------------------------------------------------------------| 
|--------------------------17-17-------------------17b-----------| 
|-17b19-19r17-15--17b19r17-------19r17-17b19r17-15---------------| 
|----------------------------------------------------------------| 
|----------------------------------------------------------------| 
|----------------------------------------------------------------| 
|----------------------------------------------------------------| 
Part 3 
|---------------17b---------10------10---------------------------| 
|-17b19r17--15---------13b-----13b-------------------------------| 
|---------------------------------------11p10p9------------------| 
|------------------------------------------------12-8------------| 
|-----------------------------------------------------11---------| 
|----------------------------------------------------------------| 
|----------------------------------------------------------------| 
|-17b19-b19-b19-b19r-b19r-b19r-b19r-b19r-b19r-b19r-b19r17p15-----| 
|----------------------------------------------------------------| 
|----------------------------------------------------------------| 
|----------------------------------------------------------------| 
|----------------------------------------------------------------| 
|----------------------------------------------------------------| 
|----17-15-----14------------------14~---------------------------| 
|-16-------16-----16\14--12--14/16-------------------------------| 
|----------------------------------------------------------------| 
|----------------------------------------------------------------| 
|----------------------------------------------------------------| 
|-----10----9---7------------------------------14----12----------| 
|-10b----10---8---7-10---8------------------------------15-------| 
|----------------------9-----7--------------------14-------12br--| 
|--------------------------9---7------------12-------------------| 
|--------------------------------10-9-10/14----------------------| 
|----------------------------------------------------------------| 
|-----------------------------9-10---12--------------------------| 
|---------------------12-11--------------------------------------| 
|-11~-11-12---12-14----------------------------------------------| 
|----------------------------------------------------------------| 
|----------------------------------------------------------------| 
|----------------------------------------------------------------| 
|-14-10----14-10----14-10----14-10----14-10----------------------| 
|-------12-------12-------12-------12-------12-------------------| 
|----------------------------------------------------------------| 
|----------------------------------------------------------------| 
|----------------------------------------------------------------| 
|----------------------------------------------------------------| 
|-12-9----12-9----12-9/-18---------------------------------------| 
|------11------11------------------------------------------------| 
|----------------------------------------------------------------| 
|----------------------------------------------------------------| 
|----------------------------------------------------------------| 
|----------------------------------------------------------------| 
|-12-9----12-9----12-9----12-9----12-9---------------------------| 
|------10------10------10------10------10------------------------| 
|----------------------------------------------------------------| 
|----------------------------------------------------------------| 
|----------------------------------------------------------------| 
|----------------------------------------------------------------| 
|-10-7---10-7---10-7/-16----10-7---10-7---10-7---10-7------------| 
|------9------9------------------8------8------8------8----------| 
|----------------------------------------------------------------| 
|----------------------------------------------------------------| 
|----------------------------------------------------------------| 
|----------------------------------------------------------------| 
|-10-5---10-5---10-5/-14----7-3---7-3---7-3---7-3---7-3----------| 
|------7------7-----------------5-----5-----5-----5-----5--------| 
|----------------------------------------------------------------| 
|----------------------------------------------------------------| 
|----------------------------------------------------------------| 
|----------------------------------------------------------------| 
|-9-6---9-6---9-6/-14--------------------------------------------| 
|-----7-----7----------------------------------------------------| 
|----------------------------------------------------------------| 
|----------------------------------------------------------------| 
|----------------------------------------------------------------| 
|----------------------------------------------------------------| 
Part 4 
|----7--------------------------------------7--------------------| 
|------7--10---7------------------------------7-10-7-------------| 
|-9b---------9---7-9---7-----------------------------9b11r9--7---| 
|--------------------9---7----7----------7~----------------------| 
|--------------------------/9---9\-5-7/9-------------------------| 
|----------------------------------------------------------------| 
|-------------------6-7---9---10-7---10-7---10-7---10-7---10-7---| 
|---------7---8-7------------------7------7------7------7------7-| 
|-7-9---9--------------------------------------------------------| 
|----------------------------------------------------------------| 
|----------------------------------------------------------------| 
|----------------------------------------------------------------| 
|-9-6---9-6---9-6/-14----9-5---9-5---9-5---9-5---9-5-------------| 
|-----7-----7----------------5-----5-----5-----5-----5-----------| 
|----------------------------------------------------------------| 
|----------------------------------------------------------------| 
|----------------------------------------------------------------| 
|----------------------------------------------------------------| 
|-7-4---7-4---7-4/-12----7-3---7-3---7-3---7-3---7-3-------------| 
|-----5-----5----------------3-----3-----3-----3-----3-----------| 
|----------------------------------------------------------------| 
|----------------------------------------------------------------| 
|----------------------------------------------------------------| 
|----------------------------------------------------------------| 
|-5-2---5-2---5-2/-10~----3-0---3-0---3-0---3-0------------------| 
|-----3-----3-----------------0-----0-----0-----0----------------| 
|----------------------------------------------------------------| 
|----------------------------------------------------------------| 
|----------------------------------------------------------------| 
|----------------------------------------------------------------| 
|-6-2---6-2---6-2--/9--------------------------------------------| 
|-----2-----2----------------------------------------------------| 
|----------------------------------------------------------------| 
|----------------------------------------------------------------| 
|----------------------------------------------------------------| 
|----------------------------------------------------------------| 
    	

enviado porenviado por: Teusalves
cifra enviadaCorrigida por: sem correções
logo top cifrasComente
ico música do artistaMúsicas deste artista
ico curtiuCurtiu?
ico destaqueDestaque
Petaxxon Comunicação Online

Cifras.com.br - Melhor e mais completo site de cifras e tablaturas do Brasil Mais de 1 milhão de acordes de músicas cadastradas desde 2003
As informações contidas no nosso site são colaborações de seus usuários e podem conter erros, sendo assim, não nos responsabilizamos sobre nenhuma destas.

close
menos
mais
close
Cor dos acordes:

Cor da letra:

close
Alinhar acordes a direita Alinhar acordes a esquerda Alinhar acordes em baixo Alinhar acordes no topo
close
  Mostrar todos os acordes Esconder acordes muito fáceis Esconder acordes fáceis Esconder acordes intermediários
redimensionar
glossário