Cifras e Tablaturas
Ebba Grön

Ebba Grön

Schweden Schweden

Cifras Cancelar Versão de Impressão
cifras

Ebba Grön - Schweden Schweden

fixar na tela  
Exibindo: vídeo-aula ver clipes redimensionar

Tom:

  
Intro 
e|-------------------------------------0----5--------------0----5-5-5-5-----| 
B|--------------------5-------------/5---7--5--7---5--/10-10----5-5-7-5-----| 
G|-4b5--4b5r4--2--4b6---4b6r4--2--------------------------------------------| 
D|--------------------------------------------------------------------------| x2 
A|--------------------------------------------------------------------------| 
E|--------------------------------------------------------------------------| 

e|--------------------------------------------------------------------------| 
B|--------------------------------------------------------------------------| 
G|-7----------7-------------------------------------------------------------| 
D|-7--7--2----7--7--2----2--------------------------------------------------| 
A|-5--7--2----5--7--2----2--------------------------------------------------| 
E|----5--0-------5--0----0--------------------------------------------------| 

Verse (Two variants) 
Variant 1 
e|--------------------------------------------------------------------------| 
B|--------------------------------------------------------------------------| 
G|------------------9-9-9-9-9-9-9-9--7-7-7-7-7-7-7-7------------------------| 
D|-7-7-7-7-7-7-7-7--9-9-9-9-9-9-9-9--7-7-7-7-7-7-7-7--7-7-7-7-7-7-7-7-------| x3 
A|-7-7-7-7-7-7-7-7--7-7-7-7-7-7-7-7--5-5-5-5-5-5-5-5--7-7-7-7-7-7-7-7-------| 
E|-5-5-5-5-5-5-5-5------------------------------------5-5-5-5-5-5-5-5-------| 
Variant 2 
e|--------------------------------------------------------------------------| 
B|--------------------------------------------------------------------------| 
G|--------------------------------------------------------------------------| 
D|------------------9-911-9-9-9-119--7-7-9-7-7-7-9-7------------------------| x3 
A|-7-7-7-7-7-7-7-7--7-7-7-7-7-7-7-7--5-5-5-5-5-5-5-5--7-7-7-7-7-7-7-7-------| 
E|-5-5-5-5-5-5-5-5------------------------------------5-5-5-5-5-5-5-5-------| 

Chorus 
e|--------------------------------------------------------------------------------| 
B|--------------------------------------------------------------------------------| 
G|-6---6--6--9---9--9--6---6--6--9---9--9--7---7--7-----------------4b-4b-2-------| 
D|-6---6--6--9---9--9--6---6--6--9---9--9--7---7--7--7---7--7--2-----------2------| 
A|-4---4--4--7---7--7--4---4--4--7---7--7--5---5--5--7---7--7--2------------------| 
E|---------------------------------------------------5---5--5--0------------------| 

Verse 
Variant 1 
e|--------------------------------------------------------------------------| 
B|--------------------------------------------------------------------------| 
G|------------------9-9-9-9-9-9-9-9--7-7-7-7-7-7-7-7------------------------| 
D|-7-7-7-7-7-7-7-7--9-9-9-9-9-9-9-9--7-7-7-7-7-7-7-7--7-7-7-7-7-7-7-7-------| x3 
A|-7-7-7-7-7-7-7-7--7-7-7-7-7-7-7-7--5-5-5-5-5-5-5-5--7-7-7-7-7-7-7-7-------| 
E|-5-5-5-5-5-5-5-5------------------------------------5-5-5-5-5-5-5-5-------| 
Variant 2 
e|--------------------------------------------------------------------------| 
B|--------------------------------------------------------------------------| 
G|--------------------------------------------------------------------------| 
D|------------------9-911-9-9-9-119--7-7-9-7-7-7-9-7------------------------| x3 
A|-7-7-7-7-7-7-7-7--7-7-7-7-7-7-7-7--5-5-5-5-5-5-5-5--7-7-7-7-7-7-7-7-------| 
E|-5-5-5-5-5-5-5-5------------------------------------5-5-5-5-5-5-5-5-------| 

Chorus 
e|--------------------------------------------------------------------------------| 
B|--------------------------------------------------------------------------------| 
G|-6---6--6--9---9--9--6---6--6--9---9--9--7---7--7-----------------4b-4b-2-------| 
D|-6---6--6--9---9--9--6---6--6--9---9--9--7---7--7--7---7--7--2-----------2------| 
A|-4---4--4--7---7--7--4---4--4--7---7--7--5---5--5--7---7--7--2------------------| 
E|---------------------------------------------------5---5--5--0------------------| 

Interlude  
e|-------------------------------------0----5--------------0----5-5-5-5-----| 
B|--------------------5-------------/5---7--5--7---5--/10-10----5-5-7-5-----| 
G|-4b5--4b5r4--2--4b6---4b6r4--2--------------------------------------------| 
D|--------------------------------------------------------------------------| x2 
A|--------------------------------------------------------------------------| 
E|--------------------------------------------------------------------------| 

e|--------------------------------------------------------------------------| 
B|--------------------------------------------------------------------------| 
G|-7----------7-------------------------------------------------------------| 
D|-7--7--2----7--7--2----2--------------------------------------------------| 
A|-5--7--2----5--7--2----2--------------------------------------------------| 
E|----5--0-------5--0----0--------------------------------------------------| 

Verse 
Variant 1 
e|--------------------------------------------------------------------------| 
B|--------------------------------------------------------------------------| 
G|------------------9-9-9-9-9-9-9-9--7-7-7-7-7-7-7-7------------------------| 
D|-7-7-7-7-7-7-7-7--9-9-9-9-9-9-9-9--7-7-7-7-7-7-7-7--7-7-7-7-7-7-7-7-------| x3 
A|-7-7-7-7-7-7-7-7--7-7-7-7-7-7-7-7--5-5-5-5-5-5-5-5--7-7-7-7-7-7-7-7-------| 
E|-5-5-5-5-5-5-5-5------------------------------------5-5-5-5-5-5-5-5-------| 
Variant 2 
e|--------------------------------------------------------------------------| 
B|--------------------------------------------------------------------------| 
G|--------------------------------------------------------------------------| 
D|------------------9-911-9-9-9-119--7-7-9-7-7-7-9-7------------------------| x3 
A|-7-7-7-7-7-7-7-7--7-7-7-7-7-7-7-7--5-5-5-5-5-5-5-5--7-7-7-7-7-7-7-7-------| 
E|-5-5-5-5-5-5-5-5------------------------------------5-5-5-5-5-5-5-5-------| 

Outro  
e|--------------------------------------------------------------------------------| 
B|--------------------------------------------------------------------------------| 
G|-6---6--6--9---9--9--6---6--6--9---9--9--7---7--7-----------------4b-4b-2-------| 
D|-6---6--6--9---9--9--6---6--6--9---9--9--7---7--7--7---7--7--2-----------2------| x2 
A|-4---4--4--7---7--7--4---4--4--7---7--7--5---5--5--7---7--7--2------------------| 
E|---------------------------------------------------5---5--5--0------------------| 


************************************ 

| b   Bend 
| br  Bend release 

************************************ 
  

top 5 | ebba grön
top punk rock
Outras músicas do artista letras do(a) Ebba Grön
Top cifras »Top artistas »
Petaxxon Comunicação Online
Cifras.com.br - Melhor e mais completo site de cifras e tablaturas do Brasil
Mais de 1 milhão de acordes de músicas cadastradas desde 2003
As informações contidas no nosso site são colaborações de seus usuários e podem conter erros, sendo assim, não nos responsabilizamos sobre nenhuma destas.
close
menos
mais
close
Cor dos acordes:

Cor da letra:

 

save
close
close
 
redimensionar