Cifras e Tablaturas
Echosmith

Echosmith

March Into The Sun

Cifras Cancelar Versão de Impressão Print

Echosmith - March Into The Sun

Tom: A

  			------------------------------------------------------------------------------- 
                             March Into The Sun - Echosmith  
------------------------------------------------------------------------------- 

Tabbed by:Mark Donohue  
E-mail:[email protected]  

Tuning:Standard  

e|---5X---5-------5X---5-------5X---5-------5X---5---------------------------| Intro  
B|----------7-5----------7-5----------7-5----------7-5-----------------------| 
G|---------------------------------------------------------------------------| Hey,ooh/Hey,ooh/Hey,ooh/ 
D|---------------------------------------------------------------------------| Hey,ooh 
A|---------------------------------------------------------------------------| 
E|---------------------------------------------------------------------------| 

e|---------------------------------------------------------------------------| verse 1  
B|---3-2-2---2-2-3-3-2-2---3-3-2-2---0-0-------------------------------------| 
G|---------------------------------------2-2---------------------------------| This is not the end/ 
D|---------------------------------------------------------------------------| There's no apocalypse/ 
A|---------------------------------------------------------------------------| And all those kids/ 
E|---------------------------------------------------------------------------| Were full of it  

e|---------------------------------------------------------------------------| Pre-Chorus  
B|---5-5-7-7-5-7-2---7-7-5-5h7h8---3-3-3-3-2-2---0-0-0-----------------------| 
G|-----------------------------------------------------2-2---2-2-2-2-2-2-----| I've got your hand in my  
D|---------------------------------------------------------------------------| hand/No drinks inside/ 
A|---------------------------------------------------------------------------| It's how we start a fire/ 
E|---------------------------------------------------------------------------| With a natural high  

e|---5-2-5-5-7-7-9-2-2-5-5-7-9-7-5---5-2-5-5-7-7-9-2-2-5-5-7-5-9-------------| Chorus  
B|---------------------------------------------------------------------------| 
G|---------------------------------------------------------------------------| With hands in our pockets  
D|---------------------------------------------------------------------------| this doesn't have to be our  
A|---------------------------------------------------------------------------| last dance/With hands in our  
E|---------------------------------------------------------------------------| pockets this world doesn't  
                                                                               have to end  

e|---5-12-9-12-9-12-9-12-9---5-12-9-12-9-12-9-12-9-7-------------------------| Chorus  
B|---------------------------------------------------------------------------| 
G|---------------------------------------------------------------------------| No grand finale  
D|---------------------------------------------------------------------------| 
A|---------------------------------------------------------------------------| 
E|---------------------------------------------------------------------------| 

e|---2-5-5-7-7-9-2-5-7-2-5---------------------------------------------------| Chorus  
B|---------------------------------------------------------------------------| 
G|---------------------------------------------------------------------------| Hands in our pockets  
D|---------------------------------------------------------------------------| we'll march into the sun  
A|---------------------------------------------------------------------------| 
E|---------------------------------------------------------------------------| 

e|---5X---5-------5X---5-----------------------------------------------------| Bridge   
B|----------7-5----------7-5-------------------------------------------------| 
G|---------------------------------------------------------------------------| Hey,ooh/Hey,ooh 
D|---------------------------------------------------------------------------|  
A|---------------------------------------------------------------------------| 
E|---------------------------------------------------------------------------| 

e|---------------------------------------------------------------------------| verse 2  
B|---3-2-2---2-2-3-3-2-2---2-3-3-2-2---0-0-0---------------------------------| 
G|-------------------------------------------2-2-----------------------------| When Monday comes/  
D|---------------------------------------------------------------------------| It's ringing in your head/ 
A|---------------------------------------------------------------------------| And these battle drums/ 
E|---------------------------------------------------------------------------| In a world that's bent  

e|---------------------------------------------------------------------------| Pre-Chorus  
B|---5-5-7-7-5-7-2---7-7-5-5h7h8---3-3-3-3-2-2---0-0-0-----------------------| 
G|-----------------------------------------------------2-2---2-2-2-2-2-2-----| I've got your hand in my  
D|---------------------------------------------------------------------------| hand/No drinks inside/ 
A|---------------------------------------------------------------------------| It's how we start a fire/ 
E|---------------------------------------------------------------------------| With a natural high  

e|---5-2-5-5-7-7-9-2-2-5-5-7-9-7-5---5-2-5-5-7-7-9-2-2-5-5-7-5-9-------------| Chorus  
B|---------------------------------------------------------------------------| 
G|---------------------------------------------------------------------------| With hands in our pockets  
D|---------------------------------------------------------------------------| this doesn't have to be our  
A|---------------------------------------------------------------------------| last dance/With hands in our  
E|---------------------------------------------------------------------------| pockets this world doesn't  
                                                                               have to end  

e|---5-12-9-12-9-12-9-12-9---5-12-9-12-9-12-9-12-9-7-------------------------| Chorus  
B|---------------------------------------------------------------------------| 
G|---------------------------------------------------------------------------| No grand finale  
D|---------------------------------------------------------------------------| 
A|---------------------------------------------------------------------------| 
E|---------------------------------------------------------------------------| 

e|---2-5-5-7-7-9-2-5-7-2-5---------------------------------------------------| Chorus  
B|---------------------------------------------------------------------------| 
G|---------------------------4-4-4-2-4/6-6-6-6-6-----------------------------| Hands in our pockets  
D|---------------------------------------------------------------------------| we'll march into the sun  
A|---------------------------------------------------------------------------| 
E|---------------------------------------------------------------------------| 

e|---5-5-5---9-7-5-5-5---2-5-7-2-2-5-5-5---9-7-5-5-5---2-5-7-5-7/9-----------| Bridge  
B|---------------------------------------------------------------------------| 
G|---------------------------------------------------------------------------| On,on,on,we're going on/ 
D|---------------------------------------------------------------------------| March into the sun/ 
A|---------------------------------------------------------------------------| On,on,on,we're going on/ 
E|---------------------------------------------------------------------------| March into the sun 

e|---5-5---9-7-5-5-5---2-5-7-2-2-5-5-5-9-7-5-5-------------------------------| Bridge  
B|---------------------------------------------------------------------------| 
G|---------------------------------------------------------------------------| On,on,on,we're going on/ 
D|---------------------------------------------------------------------------| March into the sun/ 
A|---------------------------------------------------------------------------| On,on,on we're going on  
E|---------------------------------------------------------------------------| 

e|---5-2-5-5-7-7-9-2-2-5-5-7-9-7-5---5-2-5-5-7-7-9-2-2-5-5-7-5-9-------------| Chorus  
B|---------------------------------------------------------------------------| 
G|---------------------------------------------------------------------------| With hands in our pockets  
D|---------------------------------------------------------------------------| this doesn't have to be our  
A|---------------------------------------------------------------------------| last dance/With hands in our  
E|---------------------------------------------------------------------------| pockets this world doesn't  
                                                                               have to end  

e|---5-12-9-12-9-12-9-12-9---5-12-9-12-9-12-9-12-9-7-------------------------| Chorus  
B|---------------------------------------------------------------------------| 
G|---------------------------------------------------------------------------| No grand finale  
D|---------------------------------------------------------------------------| 
A|---------------------------------------------------------------------------| 
E|---------------------------------------------------------------------------| 

e|---2-5-5-7-7-9-2-5-7-2-5---5-2-5-5-7-7-9-2-5-7-2-5-------------------------| Chorus  
B|---------------------------------------------------------------------------| 
G|---------------------------------------------------------------------------| Hands in our pockets  
D|---------------------------------------------------------------------------| we'll march into the sun/  
A|---------------------------------------------------------------------------| With hands in our pockets  
E|---------------------------------------------------------------------------| we'll march into the sun  

e|---5X---5-------5X---5-------5X---5-------5X---5---------------------------| Final   
B|----------7-5----------7-5----------7-5----------7-5-----------------------| 
G|---------------------------------------------------------------------------| Hey,ooh/Hey,ooh/Hey,ooh/ 
D|-------------------------------------------------------7---7-7-------------| Hey,ooh 
A|---------------------------------------------------------------------------| 
E|---------------------------------------------------------------------------| 

************************************ 

Key: 

| /   Slide up 
| h   Hammer-on 
| x   Mute note 
| -   No pause  
| --- Pause  

************************************ 
    	
fixar
fixar inscrever-se

enviado porenviado por: ubirbomfim
cifra enviadaCorrigida por: sem correções
logo top cifrasComente
ico música do artistaMúsicas deste artista
ico curtiuCurtiu?
ico destaqueDestaque
Petaxxon Comunicação Online

Cifras.com.br - Melhor e mais completo site de cifras e tablaturas do Brasil Mais de 1 milhão de acordes de músicas cadastradas desde 2003
As informações contidas no nosso site são colaborações de seus usuários e podem conter erros, sendo assim, não nos responsabilizamos sobre nenhuma destas.

close
menos
mais
close
Cor dos acordes:

Cor da letra:

close
Alinhar acordes a direita Alinhar acordes a esquerda Alinhar acordes em baixo Alinhar acordes no topo
close
  Mostrar todos os acordes Esconder acordes muito fáceis Esconder acordes fáceis Esconder acordes intermediários
redimensionar
glossário