Cifras e Tablaturas
Echosmith

Echosmith

Tell Her You Love Her (acoustic)

Cifras Cancelar Versão de Impressão Print

Echosmith - Tell Her You Love Her (acoustic)

Tom:

  			
e|---------------------------------------------------------------------------| Intro   
B|---------------------------------------------------------------------------| 
G|---------------------------------------------------------------------------| 
D|---5-7-12---5-7-12---4-7-12---4-7-12---5-7-12---5-7-12---4-7-12---4-7-12---| 
A|---------------------------------------------------------------------------| 
E|---------------------------------------------------------------------------| 

e|---------------------------------------------------------------------------| verse 1  
B|---7-7-5-3-0---7-7-5-3-0---------7-7-5-3-0---7-7-5-3-0---------------------|  
G|-------------------------2---2-------------------------2---2---------------| Tell her a story, tell her  
D|---------------------------------------------------------------------------| the honest truth/You treat  
A|---------------------------------------------------------------------------| her better, make sure to  
E|---------------------------------------------------------------------------| see it through  

e|---------------------------------------------------------------------------| verse 1  
B|---7-7-5-3-3-3-0-5-7---0-3-0-3-0---------0-7-7-5-3-0---7-7-5-3-0-----------| 
G|---------------------------------2---2---------------------------2---2-----| Don't be just everything she  
D|---------------------------------------------------------------------------| wants,be everything she  
A|---------------------------------------------------------------------------| needs/When she says she loves  
E|---------------------------------------------------------------------------| you, tell her you love her too 

e|---------------------------------------------------------------------------| Bridge  
B|---10-7---3-12-10-7-5-3------10-7---3-12-10-7-5-3--------------------------| 
G|---------------------------------------------------------------------------| Ooh ooh, ooh ooh ooh ooh ooh 
D|---------------------------------------------------------------------------| ooh/Ooh ooh, ooh ooh ooh  
A|---------------------------------------------------------------------------| ooh ooh ooh  
E|---------------------------------------------------------------------------| 

e|---------------------------------------------------------------------------| verse 2  
B|---7-7-5-3-0---7-7-5-3-3-0---------5-7-5-3-0---5-7-5-3-0-------------------| 
G|---------------------------2---2-------------------------2---2-------------| Give her a reason,reason 
D|---------------------------------------------------------------------------| to love all you do/She'll  
A|---------------------------------------------------------------------------| tell you secrets,you'll  
E|---------------------------------------------------------------------------| tell her secrets too  

e|---------------------------------------------------------------------------| verse 2  
B|---7-7-5-3-3-3-0-5-7---7-10-12-5-3---0-7-7-5-3-0---7-7-5-3-0---------------| 
G|-------------------------------------------------------------2---2---------| She'll tell you all her  
D|---------------------------------------------------------------------------| hopes and dreams,you'll  
A|---------------------------------------------------------------------------| tell them too/When she says  
E|---------------------------------------------------------------------------| she loves you, tell her you 
                                                                               love her too 

e|---------------------------------------------------------------------------| verse 2   
B|---7-7-5-3-0-----10--------------------------------------------------------| 
G|-------------2-------------------------------------------------------------| Tell her you love her too  
D|---------------------------------------------------------------------------| 
A|---------------------------------------------------------------------------| 
E|---------------------------------------------------------------------------| 

e|---------------------------------------------------------------------------| Chorus  
B|---7-5-3---10-12-12-10-12-12---10-12-10-7-5--------------------------------| 
G|---------------------------------------------------------------------------| But don't you runaway,  
D|---------------------------------------------------------------------------| runaway,when you get tired 
A|---------------------------------------------------------------------------| 
E|---------------------------------------------------------------------------| 

e|---------------------------------------------------------------------------| Chorus  
B|---3-5-3---10-12-12-10-12-12---10-12-10-7-8-7-5----------------------------| 
G|---------------------------------------------------------------------------| Cause this will slip away,  
D|---------------------------------------------------------------------------| slip away,and start a fire  
A|---------------------------------------------------------------------------| 
E|---------------------------------------------------------------------------| 

e|---------------------------------------------------------------------------| Chorus  
B|---3-8-7-0-0-0-3-5-7---0-8-7-0-0-0-10-7-5----------------------------------| 
G|---------------------------------------------------------------------------| Ooh,that can never be put  
D|---------------------------------------------------------------------------| out,ooh hurry time is running  
A|---------------------------------------------------------------------------| out  
E|---------------------------------------------------------------------------| 

e|---------------------------------------------------------------------------| Chorus  
B|---7-5-3---10-12-12-10-12-12---10-12-10-7-5---3-8-7------------------------| 
G|---------------------------------------------------------------------------| But don't you runaway,  
D|---------------------------------------------------------------------------| runaway,before you tell her,  
A|---------------------------------------------------------------------------| you love her  
E|---------------------------------------------------------------------------| 

e|----------------------------------------------------------------------| Bridge   
B|---3-12-10-7-5-3------10-7---3-12-10-7-5-3----------------------------| 
G|----------------------------------------------------------------------| Ooh ooh ooh ooh ooh ooh/ 
D|----------------------------------------------------------------------| Ooh ooh, ooh ooh ooh ooh ooh ooh  
A|----------------------------------------------------------------------| 
E|----------------------------------------------------------------------| 

e|----------------------------------------------------------------------| verse 3  
B|---3-5-7-5-3-0---5-7-5-3-0---------5-7-5-3-0---5-7-5-3-3--------------| 
G|---------------------------2---2-------------------------2-2---2------| When she says she needs you, tell 
D|----------------------------------------------------------------------| her you need her too/You tell her  
A|----------------------------------------------------------------------| clearly, speak what your heart  
E|----------------------------------------------------------------------| wants you too  

e|----------------------------------------------------------------------| verse 3  
B|---5-7-5-3-0---7-7-10-10-12-7-5-3---3-5-7-5-3-0---5-7-5-3-0-----------| 
G|------------------------------------------------------------2---2-----| Tell her she's lovely, always tell  
D|----------------------------------------------------------------------| her the truth/When she says she  
A|----------------------------------------------------------------------| loves you, tell her you love her  
E|----------------------------------------------------------------------| too  

e|----------------------------------------------------------------------| Chorus  
B|---3-5-3---10-12-12-10-12-12---10-12-10-7-5---------------------------| 
G|----------------------------------------------------------------------| But please don't runaway, runaway, 
D|----------------------------------------------------------------------| when you get tired  
A|----------------------------------------------------------------------| 
E|----------------------------------------------------------------------| 

e|----------------------------------------------------------------------| Chorus  
B|---7-5-3---10-12-12-10-12-12---10-12-10-7-8-7-5-----------------------| 
G|----------------------------------------------------------------------| Cause this will slip away, slip 
D|----------------------------------------------------------------------| away and start a fire  
A|----------------------------------------------------------------------| 
E|----------------------------------------------------------------------| 

e|----------------------------------------------------------------------| Chorus   
B|---3-8-7-0-0-0-3-5-7---0-8-7-0-0-0-10-7-------------------------------| 
G|----------------------------------------------------------------------| Ooh,that can never be put out,ooh  
D|----------------------------------------------------------------------| hurry time is running out  
A|----------------------------------------------------------------------| 
E|----------------------------------------------------------------------| 

e|----------------------------------------------------------------------| Chorus   
B|---7-5-3---10-12-12-10-12-12---10-12-10-7-5---3-8-7-------------------| 
G|----------------------------------------------------------------------| But don't you runaway,runaway,  
D|----------------------------------------------------------------------| before you tell her,you love her 
A|----------------------------------------------------------------------| 
E|----------------------------------------------------------------------| 

e|----------------------------------------------------------------------| Final  
B|---3-12-10-7-5-3------10-7---3-12-10-7-5-3----------------------------| 
G|----------------------------------------------------------------------| Ooh ooh ooh ooh ooh ooh/ 
D|----------------------------------------------------------------------| Ooh ooh, ooh ooh ooh ooh ooh ooh 
A|----------------------------------------------------------------------| 
E|----------------------------------------------------------------------| 

e|----------------------------------------------------------------------| Final  
B|---8-8-8-10-7---3-12-10-7-5-3------10-7---3-12-10-7-5-3---------------| 
G|----------------------------------------------------------------------| You love her,ooh ooh ooh ooh ooh 
D|----------------------------------------------------------------------| ooh/Ooh ooh, ooh ooh ooh ooh ooh  
A|----------------------------------------------------------------------| ooh  
E|----------------------------------------------------------------------| 


 
    	
fixar
fixar inscrever-se

enviado porenviado por: bombaXXX
cifra enviadaCorrigida por: sem correções
logo top cifrasComente
ico música do artistaMúsicas deste artista
ico curtiuCurtiu?
ico destaqueDestaque
Petaxxon Comunicação Online

Cifras.com.br - Melhor e mais completo site de cifras e tablaturas do Brasil Mais de 1 milhão de acordes de músicas cadastradas desde 2003
As informações contidas no nosso site são colaborações de seus usuários e podem conter erros, sendo assim, não nos responsabilizamos sobre nenhuma destas.

close
menos
mais
close
Cor dos acordes:

Cor da letra:

close
Alinhar acordes a direita Alinhar acordes a esquerda Alinhar acordes em baixo Alinhar acordes no topo
close
  Mostrar todos os acordes Esconder acordes muito fáceis Esconder acordes fáceis Esconder acordes intermediários
redimensionar
glossário