Cifras e Tablaturas
Ed Sheeran

Ed Sheeran

Thinking Out Loud (ver. acoustic)

Cifras Cancelar Versão de Impressão

Ed Sheeran - Thinking Out Loud (ver. acoustic)

Tom: D

  			
Intro: 
e|--2-----x--------------------x--------------x------x------------------------------------------------| 
B|--2-----x--3-----------------x------------0-x---2--x--2/4-------------------------------------------| 
G|--0h2---x--2-----------------x------------0-x---2--x--2/4-------------------------------------------| 
D|--------x--0-----------------x------------0-x---2--x--2/4-------------------------------------------| 
A|--------x--------------------x--------------x------x------------------------------------------------| 
E|--------x--2-----------------x--------0h3---x------x------------------------------------------------| 
          when your legs don't work like they used to before 

e|--2-----x--------------------x--------------x------x------------------------------------------------| 
B|--2-----x--3-----------------x------------0-x---2--x--2/4-------------------------------------------| 
G|--0h2---x--2-----------------x------------0-x---2--x--2/4-------------------------------------------| 
D|--------x--0-----------------x------------0-x---2--x--2/4-------------------------------------------| 
A|--------x--------------------x--------------x------x------------------------------------------------| 
E|--------x--2-----------------x--------0h3---x------x------------------------------------------------| 
          and I can't sweep you off of your feet 

e|--2-----x--------------------x--------------x------x------------------------------------------------| 
B|--2-----x--3-----------------x------------0-x---2--x--2/4-------------------------------------------| 
G|--0h2---x--2-----------------x------------0-x---2--x--2/4-------------------------------------------| 
D|--------x--0-----------------x------------0-x---2--x--2/4-------------------------------------------| 
A|--------x--------------------x--------------x------x------------------------------------------------| 
E|--------x--2-----------------x--------0h3---x------x------------------------------------------------| 
          will your mouth still remember the taste of my love 

e|--2-----x--------------------x--------------x------x------------------------------------------------| 
B|--2-----x--3-----------------x------------0-x---2--x--2/4-------------------------------------------| 
G|--0h2---x--2-----------------x------------0-x---2--x--2/4-------------------------------------------| 
D|--------x--0-----------------x------------0-x---2--x--2/4-------------------------------------------| 
A|--------x--------------------x--------------x------x------------------------------------------------| 
E|--------x--2-----------------x--------0h3---x------x------------------------------------------------| 
          Will your eyes still smile from your cheeks 
Chorus: 
e|-----------2-----x--------------------x--------------x------x---------------------------------------| 
B|-----------2-----x--3-----------------x------------0-x---2--x---------------------------------------| 
G|-----------0h2---x--2-----------------x------------0-x---2--x---------------------------------------| 
D|-----------------x--0-----------------x------------0-x---2--x---------------------------------------| 
A|-----------------x--------------------x--------------x------x---------------------------------------| 
E|-----------------x--2-----------------x--------0h3---x------x---------------------------------------| 
And, darling, I will                    be loving you    'til we're 70 

e|-----------2-----x--------------------x--------------x------x---------------------------------------| 
B|-----------2-----x--3-----------------x------------0-x---2--x---------------------------------------| 
G|-----------0h2---x--2-----------------x------------0-x---2--x---------------------------------------| 
D|-----------------x--0-----------------x------------0-x---2--x---------------------------------------| 
A|-----------------x--------------------x--------------x------x---------------------------------------| 
E|-----------------x--2-----------------x--------0h3---x------x---------------------------------------| 
And, baby, my       heart could still fall       as hard      at 23 

e|-----------2-----x--------------------x--------------x------x---------------------------------------| 
B|-----------2-----x--3-----------------x------------0-x---2--x---------------------------------------| 
G|-----------0h2---x--2-----------------x------------0-x---2--x---------------------------------------| 
D|-----------------x--0-----------------x------------0-x---2--x---------------------------------------| 
A|-----------------x--------------------x--------------x------x---------------------------------------| 
E|-----------------x--2-----------------x--------0h3---x------x---------------------------------------| 
                                                 And I'm thinking 'bout how 
e|-------x----x-------------------2---x 
B|-------x----x--------2----------3---x 
G|---0---x-0--x--------2----------2---x 
D|---2---x-2--x--------2--------------x 
A|-0-2---x-2--x-----------------------x 
E|-------x----x-----------------------x 
people fall in love in mysterious ways 

e|-------x------x----------------x 
B|-------x------x---------2--2---x 
G|---0---x-0----x---------2--2---x 
D|---2---x-2----x---------2--2---x 
A|-0-2---x-2----x----------------x 
E|-------x------x----------------x 
Maybe just the touch of a hand 

e|-------x-----x---------------------------------x 
B|-------x-----x-------------------2----------3--x 
G|---0---x-0---x-------------------2----------4--x 
D|---2---x-2---x-------------------2----------4--x 
A|-0-2---x-2---x---------------------------------x 
E|-------x-----x---------------------------------x 
Well, meâ??I fall in love with you every single day 

e|------x----x-------------0-0-0-------------------| 
B|------x----x-------------2-2-2-------------------| 
G|---0--x-0--x-------------2-2-2--strum up 3 times-| 
D|---2--x-2--x-------------2-2-2-------------------| 
A|-0-2--x-2--x-------------0-0-0-------------------| 
E|------x----x-------------0-0-0-------------------| 
And I just wanna tell you I am 

e|-----------2-----x--------------------x--------------x------x---------------------------------------| 
B|-----------2-----x--3-----------------x------------0-x---2--x---------------------------------------| 
G|-----------0h2---x--2-----------------x------------0-x---2--x---------------------------------------| 
D|-----------------x--0-----------------x------------0-x---2--x---------------------------------------| 
A|-----------------x--------------------x--------------x------x---------------------------------------| 
E|-----------------x--2-----------------x--------0h3---x------x---------------------------------------| 
So honey now                                               take me into your loving 

e|-----------2-----x--------------------x--------------x------x---------------------------------------| 
B|-----------2-----x--3-----------------x------------0-x---2--x---------------------------------------| 
G|-----------0h2---x--2-----------------x------------0-x---2--x---------------------------------------| 
D|-----------------x--0-----------------x------------0-x---2--x---------------------------------------| 
A|-----------------x--------------------x--------------x------x---------------------------------------| 
E|-----------------x--2-----------------x--------0h3---x------x---------------------------------------| 
             arms                                        Kiss me under the light of a 

e|-----------2-----x--------------------x--------------x------x---------------------------------------| 
B|-----------2-----x--3-----------------x------------0-x---2--x---------------------------------------| 
G|-----------0h2---x--2-----------------x------------0-x---2--x---------------------------------------| 
D|-----------------x--0-----------------x------------0-x---2--x---------------------------------------| 
A|-----------------x--------------------x--------------x------x---------------------------------------| 
E|-----------------x--2-----------------x--------0h3---x------x---------------------------------------| 
             thousand stars                                Place your head on my beating 

e|-----------2-----x--------------------x--------------x------x---------------------------------------| 
B|-----------2-----x--3-----------------x------------0-x---2--x---------------------------------------| 
G|-----------0h2---x--2-----------------x------------0-x---2--x---------------------------------------| 
D|-----------------x--0-----------------x------------0-x---2--x---------------------------------------| 
A|-----------------x--------------------x--------------x------x---------------------------------------| 
E|-----------------x--2-----------------x--------0h3---x------x---------------------------------------| 
             heart                          I'm thinking out loud 

e|----------------------------------------2-----------------------------2-------| 
B|---------3----2----0----0-----0-----2---3---strum down once to finish-3-------| 
G|---------4----2----0----2-----0-----2---2-----------------------------2-------| 
D|---------4----2----0----0-----2-----2-----------------------------------------| 
A|------------------------------------------------------------------------------| 
E|------------------------------------------------------------------------------| 



************************************ 

| /   slide up 
| \   slide down 
| h   hammer-on 
| p   pull-off 
| ~   vibrato 
| +   harmonic 
| x   Mute note 
| b   Bend 
| pb  Pre-bend 
| br  Bend release 
| pbr Pre-bend release 
| brb Bend release bend 

************************************ 
    	
fixar
fixar inscrever-se

enviado porenviado por: LINEKERS
cifra enviadaCorrigida por: sem correções
logo top cifrasComente
ico música do artistaMúsicas deste artista
ico curtiuCurtiu?
ico destaqueDestaque
Petaxxon Comunicação Online

Cifras.com.br - Melhor e mais completo site de cifras e tablaturas do Brasil Mais de 1 milhão de acordes de músicas cadastradas desde 2003
As informações contidas no nosso site são colaborações de seus usuários e podem conter erros, sendo assim, não nos responsabilizamos sobre nenhuma destas.

close
menos
mais
close
Cor dos acordes:

Cor da letra:

close
Alinhar acordes a direita Alinhar acordes a esquerda Alinhar acordes em baixo Alinhar acordes no topo
close
  Mostrar todos os acordes Esconder acordes muito fáceis Esconder acordes fáceis Esconder acordes intermediários
redimensionar
glossário