Cifras e Tablaturas
Efek Rumah Kaca

Efek Rumah Kaca

Kamar Gelap

Cifras Cancelar Versão de Impressão
cifras

Efek Rumah Kaca - Kamar Gelap

fixar na tela  
Exibindo: vídeo-aula ver clipes redimensionar

Tom:

  
INTRO - Guitar 1 

e|----------------------------------------|  
B|--12---12---10---9----12---12---10---9--| 
G|----------------------------------------| 
D|----------------------------------------| 
A|----------------------------------------| 
E|----------------------------------------| 

e|-------------------------------------12-|  
B|--12---12---14---16---11---11---12------| 
G|----------------------------------------| 
D|----------------------------------------| 
A|----------------------------------------| 
E|----------------------------------------| 

INTRO - Guitar 2 

e|----------------------------------------|  
B|----------------------------------------| 
G|-4---------4---------6---------3--------| 
D|----------------------------------------| 
A|----------------------------------------| 
E|---4---------4---------6---------3------| 

e|----------------------------------------|  
B|----------------------------------------| 
G|-4---------4---------6---------3--------| 
D|----------------------------------------| 
A|----------------------------------------| 
E|---4---------4---------6---------3------| 

verse 1 

e|----------------------------------------|  
B|----------------------------------------| 
G|-1---------1---------3---------3--------| 
D|----------------------------------------| 
A|----------------------------------------| 
E|---0---------0---------2---------2------| 
              yang kau jerat        adalah riwa- 

e|----------------------------------------|  
B|----------------------------------------| 
G|-1---------1---------3---------3--------| 
D|----------------------------------------| 
A|----------------------------------------| 
E|---0---------0---------2---------2------| 
   yat        tidak   punah        jadi seja- 

e|----------------------------------------|  
B|----------------------------------------| 
G|-1---------1---------3---------3--------| 
D|----------------------------------------| 
A|----------------------------------------| 
E|---0---------0---------2---------2------| 
   rah        yang   bicara           adalah caha- 

e|----------------------------------------|  
B|----------------------------------------| 
G|-1---------1---------3---------3--------| 
D|----------------------------------------| 
A|----------------------------------------| 
E|---0---------0---------2---------2------| 
   ya         dikonstruksi    dikomposisi 

BRIDGE - Guitar 2 

e|----------------------------------------|  
B|----------------------------------------| 
G|-4---------4---------6---------3--------| 
D|----------------------------------------| 
A|----------------------------------------| 
E|---4---------4---------6---------3------| 
                       padam     semua lam- 

e|----------------------------------------|  
B|----------------------------------------| 
G|-4---------4---------6---------3--------| 
D|----------------------------------------| 
A|----------------------------------------| 
E|---4---------4---------6---------3------| 
    pu                semua    lampu 

BRIDGE - Guitar 1 

e|----------------------------------------|  
B|--12---12---10---9----12---12---10---9--| 
G|----------------------------------------| 
D|----------------------------------------| 
A|----------------------------------------| 
E|----------------------------------------| 

e|-------------------------------------12-|  
B|--12---12---14---16---11---11---12------| 
G|----------------------------------------| 
D|----------------------------------------| 
A|----------------------------------------| 
E|----------------------------------------| 

verse 2 

e|----------------------------------------|  
B|-----3~------------------7~-------------| 
G|----3~------------------6~--------------| 
D|---4~------------------8~---------------| 
A|--6~------------------9~----------------| 
E|----------------------------------------| 
            yang   bicara           adalah caha- 

e|----------------------------------------|  
B|-----3~------------------7~-------------| 
G|----3~------------------6~--------------| 
D|---4~------------------8~---------------| 
A|--6~------------------9~----------------| 
E|----------------------------------------| 
   ya         dikonstruksi    dikomposisi 

e|----------------------------------------|  
B|-----3~------------------7~-------------| 
G|----3~------------------6~--------------| 
D|---4~------------------8~---------------| 
A|--6~------------------9~----------------| 
E|----------------------------------------| 
             yang kau jerat        adalah riwa- 

e|----------------------------------------|  
B|-----3~------------------7~-------------| 
G|----3~------------------6~--------------| 
D|---4~------------------8~---------------| 
A|--6~------------------9~----------------| 
E|----------------------------------------| 
   yat        tidak   punah        jadi sejarah 

BRIDGE - Guitar 2 

e|----------------------------------------|  
B|----------------------------------------| 
G|-4---------4---------6---------3--------| 
D|----------------------------------------| 
A|----------------------------------------| 
E|---4---------4---------6---------3------| 
                       padam     semua lam- 

e|----------------------------------------|  
B|----------------------------------------| 
G|-4---------4---------6---------3--------| 
D|----------------------------------------| 
A|----------------------------------------| 
E|---4---------4---------6---------3------| 
    pu                semua    lampu 

BRIDGE - Guitar 1 

e|----------------------------------------|  
B|--12---12---10---9----12---12---10---9--| 
G|----------------------------------------| 
D|----------------------------------------| 
A|----------------------------------------| 
E|----------------------------------------| 

e|-------------------------------------12-|  
B|--12---12---14---16---11---11---12------| 
G|----------------------------------------| 
D|----------------------------------------| 
A|----------------------------------------| 
E|----------------------------------------| 

PRE Chorus x 2  

e|--0~----------------------------0~------|  
B|---0~--------------------------2~-------| 
G|----1~------------------------1~--------| 
D|-----2~----------------------2~---------| 
A|------2~--------------------------------| 
E|-------0~-------------------------------| 
            membekukan yang cair, mencairkan yang be- 

e|--4~------------------------------------|  
B|---4~-----------------------------------| 
G|----4~----------------------------------| 
D|-----6~---------------------------------| 
A|------6~--------------------------------| 
E|-------4~-------------------------------| 
   ku 

Chorus 

e|--4~--------2~--------2~--------4~------|  
B|--5~--------2~--------4~--------4~------| 
G|--4~--------3~--------3~--------4~------| 
D|--6~--------4~--------4~--------6~------| 
A|--4~--------4~--------2~--------6~------| 
E|------------2~------------------4~------| 
Jangan     kabur     berja-      mur 

e|--4~--------2~--------2~--------2~------|  
B|--5~--------2~--------4~--------1~------| 
G|--4~--------3~--------3~--------2~------| 
D|--6~--------4~--------4~--------1~------| 
A|--4~--------4~--------2~----------------| 
E|------------2~--------------------------| 
Jangan     kabur     berja-      mur 

e|--4~----------------------------16~-----|  
B|--5~--------4~--------------------------| 
G|--4~--------4~--------------------------| 
D|--6~--------4~--------------------------| 
A|--4~--------6~--------------------------| 
E|----------------------0~----------------| 
 Segala      negatif 

e|----------------------14~---------------|  
B|----------------------------------------| 
G|----------------------------------------| 
D|----------------------------------------| 
A|----------------------------------------| 
E|----------------------------------------| 
   Menuju positif,   kekal 

e|----------------------------------------|  
B|----------------------------------------| 
G|----------------------------------------| 
D|----------------------------------------| 
A|----------------------------------------| 
E|----------------------------------------| 

INTRO - Guitar 1 

e|----------------------------------------|  
B|--12---12---10---9----12---12---10---9--| 
G|----------------------------------------| 
D|----------------------------------------| 
A|----------------------------------------| 
E|----------------------------------------| 

e|-------------------------------------12-|  
B|--12---12---14---16---11---11---12------| 
G|----------------------------------------| 
D|----------------------------------------| 
A|----------------------------------------| 
E|----------------------------------------| 

INTRO - Guitar 2 

e|-----------------------12~----11------9/|  
B|--------------------9------------11~----| 
G|----------------------------------------| 
D|----------------------------------------| 
A|----------------------------------------| 
E|----------------------------------------| 

e|7~---------------------12~----11--------|  
B|--------------------9------------11~----| 
G|----------------------------------------| 
D|----------------------------------------| 
A|----------------------------------------| 
E|----------------------------------------| 

BASS SOLO 

e|--0~----------------------------0~------|  
B|---0~--------------------------2~-------| 
G|----1~------------------------1~--------| 
D|-----2~----------------------2~---------| 
A|------2~--------------------------------| 
E|-------0~-------------------------------| 

e|--4~------------------------------------|  
B|---4~-----------------------------------| 
G|----4~----------------------------------| 
D|-----6~---------------------------------| 
A|------6~--------------------------------| 
E|-------4~-------------------------------| 

PRE Chorus 

e|--0~----------------------------0~------|  
B|---0~--------------------------2~-------| 
G|----1~------------------------1~--------| 
D|-----2~----------------------2~---------| 
A|------2~--------------------------------| 
E|-------0~-------------------------------| 
            membekukan yang cair, mencairkan yang be- 

e|--4~------------------------------------|  
B|---4~-----------------------------------| 
G|----4~----------------------------------| 
D|-----6~---------------------------------| 
A|------6~--------------------------------| 
E|-------4~-------------------------------| 
   ku 

Chorus 

e|--4~--------2~--------2~--------4~------|  
B|--5~--------2~--------4~--------4~------| 
G|--4~--------3~--------3~--------4~------| 
D|--6~--------4~--------4~--------6~------| 
A|--4~--------4~--------2~--------6~------| 
E|------------2~------------------4~------| 
Jangan     kabur     berja-      mur 

e|--4~--------2~--------2~--------2~------|  
B|--5~--------2~--------4~--------1~------| 
G|--4~--------3~--------3~--------2~------| 
D|--6~--------4~--------4~--------1~------| 
A|--4~--------4~--------2~----------------| 
E|------------2~--------------------------| 
Jangan     kabur     berja-      mur 

e|--4~--------2~--------2~--------4~------|  
B|--5~--------2~--------4~--------4~------| 
G|--4~--------3~--------3~--------4~------| 
D|--6~--------4~--------4~--------6~------| 
A|--4~--------4~--------2~--------6~------| 
E|------------2~------------------4~------| 
Jangan     kabur     berja-      mur 

e|--4~----------------------------16~-----|  
B|--5~--------4~--------------------------| 
G|--4~--------4~--------------------------| 
D|--6~--------4~--------------------------| 
A|--4~--------6~--------------------------| 
E|----------------------0~----------------| 
 Segala      negatif 

e|----------------------14~---------------|  
B|----------------------------------------| 
G|----------------------------------------| 
D|----------------------------------------| 
A|----------------------------------------| 
E|----------------------------------------| 
   Menuju positif,   kekal 

e|----------------------------------------|  
B|----------------------------------------| 
G|----------------------------------------| 
D|----------------------------------------| 
A|----------------------------------------| 
E|----------------------------------------| 

OUTRO - Guitar 1 

e|----------------------------------------|  
B|--12---12---10---9----12---12---10---9--| 
G|----------------------------------------| 
D|----------------------------------------| 
A|----------------------------------------| 
E|----------------------------------------| 

e|-------------------------------------12-|  
B|--12---12---14---16---11---11---12------| 
G|----------------------------------------| 
D|----------------------------------------| 
A|----------------------------------------| 
E|----------------------------------------| 

OUTRO - Guitar 2 

e|-----------------------12~----11------9/|  
B|--------------------9------------11~----| 
G|----------------------------------------| 
D|----------------------------------------| 
A|----------------------------------------| 
E|----------------------------------------| 

e|7~---------------------12~----11--------|  
B|--------------------9------------11~----| 
G|----------------------------------------| 
D|----------------------------------------| 
A|----------------------------------------| 
E|----------------------------------------| 
  

top 5 | efek rumah kaca
top diversos
Outras músicas do artista letras do(a) Efek Rumah Kaca
Top cifras »Top artistas »
Petaxxon Comunicação Online
Cifras.com.br - Melhor e mais completo site de cifras e tablaturas do Brasil
Mais de 1 milhão de acordes de músicas cadastradas desde 2003
As informações contidas no nosso site são colaborações de seus usuários e podem conter erros, sendo assim, não nos responsabilizamos sobre nenhuma destas.
close
menos
mais
close
Cor dos acordes:

Cor da letra:

 

save
close
close
 
redimensionar