Cifras e Tablaturas
Ellie Goulding

Ellie Goulding

On My Mind

Cifras Cancelar Versão de Impressão Print

Ellie Goulding - On My Mind

Tom:

  			INTRO 


|-------8/5-3-3h5-5-|------|--1-1-1--1-1-1--1-1-1-| 
|---6-8-------------|------|--3---3--3---3--3---3-| 
|-7-----------------|------|--0---0--0---0--0---0-| 
|-------------------|-(2x)-|----------------------| 
|-------------------|------|----------------------| 
|-------------------|------|----------------------| 

Chorus 


|-------8/5-3-3h5-5-|------|---1---1---1---1-| 
|---6-8-------------|------|-3---3---3---3---| 
|-7-----------------|------|-----------------| 
|-------------------|-(3x)-|-----------------| 
|-------------------|------|-----------------| 
|-------------------|------|-----------------| 
    	
fixar
fixar inscrever-se

enviado porenviado por: Teusalves
cifra enviadaCorrigida por: sem correções
logo top cifrasComente
ico música do artistaMúsicas deste artista
ico curtiuCurtiu?
ico destaqueDestaque
Petaxxon Comunicação Online

Cifras.com.br - Melhor e mais completo site de cifras e tablaturas do Brasil Mais de 1 milhão de acordes de músicas cadastradas desde 2003
As informações contidas no nosso site são colaborações de seus usuários e podem conter erros, sendo assim, não nos responsabilizamos sobre nenhuma destas.

close
menos
mais
close
Cor dos acordes:

Cor da letra:

close
Alinhar acordes a direita Alinhar acordes a esquerda Alinhar acordes em baixo Alinhar acordes no topo
close
  Mostrar todos os acordes Esconder acordes muito fáceis Esconder acordes fáceis Esconder acordes intermediários
redimensionar
glossário