Cifras e Tablaturas
Elvis Presley

Elvis Presley

Jailhouse Rock Tablatura Verificada

Ano: 2002
Album : The Essential Elvis Presley
Compositor : (Leiber / Stoler)

Cifras Cancelar Versão de Impressão
cifras

Elvis Presley - Jailhouse Rock

fixar na tela  
Exibindo: vídeo-aula ver clipes redimensionar

Tom:

  


Tuning: Eb Ab Db Gb Bb eb 

Intro: D# E (5x) 

Riff: A E B A E 

eb|-----------------|-----------------|----------------------------| 
Bb|-----------------|-----------------|----------------------------| 
Gb|-----------------|-----------------|----------------------------| 
Db|---------2-2-4-2-|-----------------|---------4-4-6-4------------| 
Ab|-0-0-4-4---------|---------2-2-4-2-|-2-2-6-6---------0-0-4-4----| 
Eb|-----------------|-0-0-4-4---------|----------------------------| 
                 (2x)             (2x) 

eb|-------------------------------------| 
Bb|-------------------------------------| 
Gb|-------------------------------------| 
Db|-2-2-4-2-----------------------------| 
Ab|------------------2-2-4-2----------2-| 
Eb|----------0-0-4-4----------0-0-4-4---| 

Solo: 

eb|-12-12-12-----12-12-----12-12--12-12------------------------| 
Bb|-x--x--x------x--x------x--x---x--x---9-----9-------9-----9-| 
Gb|-12-12-12--12-12-12--12-12-12--12-12--12b13-12b13---12b13---| 
Db|------------------------------------------------------------| 
Ab|------------------------------------------------------------| 
Eb|------------------------------------------------------------| 

eb|-----------------------------------------7-----------7-7----5----------5-| 
Bb|-9-----9-----9-----9-----9------9--------7-----------7-7----5----------5-| 
Gb|-12b13-12b13-12b13-12b13-12b13-(12b13)---8---8-8--8--8-8-8--6-6-6--6-6-6-| 
Db|-----------------------------------------9---9-9--9--9-9-9--7-7-7--7-7-7-| 
Ab|---------------------------------------------9-9--9--9---9--7-7-7--7-7-7-| 
Eb|---------------------------------------------7-7--7--7---7--5-5-5--5-5-5-| 

eb|-0-0-0---0-2-2-0-0-0-0-| 
Bb|-0-0-2-2-0-2-2-0-0-0-0-| 
Gb|-1-1-2-2-1-2-2-2-1-1-1-| 
Db|-2-2-2-2-2-2-2-2-2-2-2-| 
Ab|-2---0---------2-2-2-2-| 
Eb|-0-------------0-0-0-0-| 

  

cifra enviadacorrigido por:Acelot
enviado porenviada por:2u4ubyu
top 5 | elvis presley
top rock'n roll
Outras músicas do artista letras do(a) Elvis Presley
Top cifras »Top artistas »
Petaxxon Comunicação Online
Cifras.com.br - Melhor e mais completo site de cifras e tablaturas do Brasil
Mais de 1 milhão de acordes de músicas cadastradas desde 2003
As informações contidas no nosso site são colaborações de seus usuários e podem conter erros, sendo assim, não nos responsabilizamos sobre nenhuma destas.
close
menos
mais
close
Cor dos acordes:

Cor da letra:

 

save
close
close
 
redimensionar