Cifras e Tablaturas
Engenheiros do Hawaii

Engenheiros do Hawaii

Somos quem podemos ser

Ano: 2005
Album : Maxximum: Engenheiros do Hawaii
Compositor : (Gessinger)

Cifras Cancelar Versão de Impressão Print

Engenheiros do Hawaii - Somos quem podemos ser

Tom: G7+

  • 0:00 / 0:00
  			Somo Quem Podemos Ser - (Engenheiros do Hawaii) 
 
Solo da introdução:  
 
  G7+              C7+  
e-------2-2-1/2-----------7-7-6/7-------------------  
B-----3-----------------8---------------------------  
G---4-----------------9-----------------------------  
D-5----------------10-------------------------------  
A---------------------------------------------------  
E---------------------------------------------------  
 
Solo do meio:  
 
e--------10-------10/12/10-------10-------10-12-10-10------------------- 
B--12-13----12-13----------12-13----12-13-------------13-12-10---------- 
G--------------------------------------------------------------12-11----  
D-----------------------------------------------------------------------  
A-----------------------------------------------------------------------  
E-----------------------------------------------------------------------  
 
e-----15-14-12-10----------10------------ 
b-10--------------13-12------------------ 
G----------------------------------------  
D------------------------------12-------- 
A----------------------------------------  
E----------------------------------------  
 

    	

enviado porenviado por: K.I.N.H.O
cifra enviadaCorrigida por: sem correções
logo top cifrasComente
ico música do artistaMúsicas deste artista
ico curtiuCurtiu?
ico destaqueDestaque
Petaxxon Comunicação Online

Cifras.com.br - Melhor e mais completo site de cifras e tablaturas do Brasil Mais de 1 milhão de acordes de músicas cadastradas desde 2003
As informações contidas no nosso site são colaborações de seus usuários e podem conter erros, sendo assim, não nos responsabilizamos sobre nenhuma destas.

close
menos
mais
close
Cor dos acordes:

Cor da letra:

close
Alinhar acordes a direita Alinhar acordes a esquerda Alinhar acordes em baixo Alinhar acordes no topo
close
  Mostrar todos os acordes Esconder acordes muito fáceis Esconder acordes fáceis Esconder acordes intermediários
redimensionar
glossário