Cifras e Tablaturas
Engenheiros do Hawaii

Engenheiros do Hawaii

Somos quem podemos ser - Solo

Compositor : (Gessinger)

Cifras Cancelar Versão de Impressão Print

Engenheiros do Hawaii - Somos quem podemos ser - Solo

Tom: E

  • 0:00 / 0:00
  			Tuning: E A D G B E  
 
 
|15-14-12----------------------------| 
|---------15-13-12-15-13-12----------| 
|---------------------------14-------| 
|------------------------------12----| 
|------------------------------------| 
|------------------------------------| 
 
e|7-8-10--7-8-10-12-10----10-8-7-----------------------| 
B|---------------------12--------10-8-7-10/12-10-------| 
G|-----------------------------------------------------| 
D|-----------------------------------------------------| 
A|-----------------------------------------------------| 
E|-----------------------------------------------------| 
 
 

    	

enviado porenviado por: agnostico3
cifra enviadaCorrigida por: sem correções
logo top cifrasComente
ico música do artistaMúsicas deste artista
ico curtiuCurtiu?
ico destaqueDestaque
Petaxxon Comunicação Online

Cifras.com.br - Melhor e mais completo site de cifras e tablaturas do Brasil Mais de 1 milhão de acordes de músicas cadastradas desde 2003
As informações contidas no nosso site são colaborações de seus usuários e podem conter erros, sendo assim, não nos responsabilizamos sobre nenhuma destas.

close
menos
mais
close
Cor dos acordes:

Cor da letra:

close
Alinhar acordes a direita Alinhar acordes a esquerda Alinhar acordes em baixo Alinhar acordes no topo
close
  Mostrar todos os acordes Esconder acordes muito fáceis Esconder acordes fáceis Esconder acordes intermediários
redimensionar
glossário