Cifras e Tablaturas
Engenheiros do Hawaii

Engenheiros do Hawaii

Vida Real

Compositor : (Gessinger)

Cifras Cancelar Versão de Impressão Print

Engenheiros do Hawaii - Vida Real

Tom: G

  • 0:00 / 0:00
  			"...ah...vida real! 
como é que eu troco de canal? " 
 
E-----------------------|-------------------------| 
A-----------------------|-------------------------| 
d-----------------------|-------------------------| 
g-----------------------|----------------------6--| 
b---------5/7-------7---|----------5/7---5/7-5---5| 
e-5/7-7-5-----5-7-5---5-|-5/7-7-5------5----------| 
__________________________________________________| 
__________________________________________________ 
E-----------------------|-------------------------| 
a-----------------------|-------------------------| 
d-----------------------|-------------------------| 
g-----------------------|-------------------------| 
b---------5/7-----------|--------5/7--5-----------| 
e-5/7-7-5-----5-7-7/9-5-|-5/7-7-5-----------------| 
 
eh mais ou menos assim que eles tocam  

    	

enviado porenviado por: felipe---------
cifra enviadaCorrigida por: sem correções
logo top cifrasComente
ico música do artistaMúsicas deste artista
ico curtiuCurtiu?
ico destaqueDestaque
Petaxxon Comunicação Online

Cifras.com.br - Melhor e mais completo site de cifras e tablaturas do Brasil Mais de 1 milhão de acordes de músicas cadastradas desde 2003
As informações contidas no nosso site são colaborações de seus usuários e podem conter erros, sendo assim, não nos responsabilizamos sobre nenhuma destas.

close
menos
mais
close
Cor dos acordes:

Cor da letra:

close
Alinhar acordes a direita Alinhar acordes a esquerda Alinhar acordes em baixo Alinhar acordes no topo
close
  Mostrar todos os acordes Esconder acordes muito fáceis Esconder acordes fáceis Esconder acordes intermediários
redimensionar
glossário