Cifras e Tablaturas
Erik Friedlander
Cifras Cancelar Versão de Impressão Print

Erik Friedlander - Buffalo

Tom:

  • 0:00 / 0:00
  			


E||------------------------|-----------------------|------------------------| 
B||--------4----3----------|-----------------------|-------1--------4----3--| 
G||--0-----0-------3/---0--|--0-----------------1--|----3-------------------| 
D||---------------------1--|-----------3-----------|-------------0----------| 
A||-----3------------------|-----------------3-----|------------------------| 
E||------------------------|--------------1--------|----------3-------------| 


                                                    
----------------1/3---1--|------------------------| 
-------------------------|--4---------------------| 
----0--------1-----------|--------5--5----3-------| 
-------------------------|-----0---------------0--| 
----------3--------------|-----------6------------| 
-------1-----------------|--------4---------------| 


                                                          
--1----------------------------|------------------------| 
-------------------------------|--------4----3----------| 
--3-------0-----------------0--|-----0----------3-------| 
-------------3--0--------------|------------------------| 
-------------------2-----------|--3---------------------| 
-------3--------------4--3-----|---------------------1--| 


                                                                              
--------1/3--1-----------|-----1------------------|-----4/6--4----3------1--| 
-------------------3-----|------------3-----------|-------------------1-----| 
-----1-------------------|---------------3--------|--5----------------------| 
-------------0-----------|--0---------------------|-------------------------| 
--3----------------------|---------------------6--|-------------------------| 
----------------------3--|------------------4-----|-------------------1-----| 


                                                                           
-----3------------------|----------------------|-------------------------| 
----------------6-------|--8/---------4--------|-------------------------| 
-------------4----------|----------3--0--------|--------0--1---0------0--| 
------------------------|-------1--------------|-----3-------------3-----| 
------------------------|----------------------|-------------------------| 
--3-------4----------6--|----------------------|--3----------------------| 


                                                                                
------------------------|------------------------|--------------------------| 
------4-----4-----4--3--|------------------------|------------------1-------| 
---0-----0-----0--------|--3/---------0--1--0----|-----------1----3---------| 
------------------------|-------1----------------|--3--------------------0--| 
-3----------------------|----------1-------------|--------3-----------------| 
------------------------|------------------------|-----1--------------3-----| 


                                                                                
--------------------1/3-|----1-------------------|-----------------1-----1--| 
4--3--------------------|-------4/---------------|--------------------------| 
--------0--------1------|------------5--5--------|-----5--3-----3-----3-----| 
------------------------|------------------------|-----------0--------------| 
--------------3---------|------------------6-----|--6-----------------------| 
-----------1------------|------------4--------4--|--------------------------| 


                                                       
-----1---------------------|-------------------------| 
---------------------------|-------------------4--3--| 
--3-----3------------------|---0------0-----0--------| 
-----------------0--3--5/6-|-------3-----------------| 
--------------2------------|-------------3-----------| 
-----------3---------------|-------------------------| 


                                                                                
------------1/3--1------|--------1---------------|--4/6---4--3-----1-----3--| 
---------------------3--|-------------3----------|--------------1-----------| 
-3-------1--------------|----------------3----5--|--------------------------| 
------------------------|-----0------------------|--------------------------| 
------3-----------------|------------------------|--------------------------| 
---1--------------------|--3------------------4--|--------------1-----3-----| 


                                                                                 
-----------------------|--------------------------|-------------------------| 
-0-6----3--1--3--4--3--|--------------------------|-------------------------| 
-----------------------|--5-----------------------|----------------------0--| 
-----------------------|-----6--5--3--0--3--------|----------------1--3-----| 
-----2-----------6-----|--------------------3--1--|-----1--3----------------| 
-4---------1-----------|--------------------------|--4----------3-----------| 


                       
--------------------|| 
--------------------|| 
--3/5---------------|| 
--------------------|| 
--------------------|| 
--------------------|| 

************************************ 

| /   slide up 
| \   slide down 
| h   hammer-on 
| p   pull-off 
| ~   vibrato 
| +   harmonic 
| x   Mute note 
| b   Bend 
| pb  Pre-bend 
| br  Bend release 
| pbr Pre-bend release 
| brb Bend release bend 

************************************ 
    	

enviado porenviado por: educastilho
cifra enviadaCorrigida por: sem correções
logo top cifrasComente
ico música do artistaMúsicas deste artista
ico curtiuCurtiu?
ico destaqueDestaque
Petaxxon Comunicação Online

Cifras.com.br - Melhor e mais completo site de cifras e tablaturas do Brasil Mais de 1 milhão de acordes de músicas cadastradas desde 2003
As informações contidas no nosso site são colaborações de seus usuários e podem conter erros, sendo assim, não nos responsabilizamos sobre nenhuma destas.

close
menos
mais
close
Cor dos acordes:

Cor da letra:

close
Alinhar acordes a direita Alinhar acordes a esquerda Alinhar acordes em baixo Alinhar acordes no topo
close
  Mostrar todos os acordes Esconder acordes muito fáceis Esconder acordes fáceis Esconder acordes intermediários
redimensionar
glossário