Cifras e Tablaturas
Erlend Øye

Erlend Øye

New For You

Cifras Cancelar Versão de Impressão
cifras

Erlend Øye - New For You

fixar na tela  
Exibindo: vídeo-aula ver clipes redimensionar
  Main Riff 
                        A                                       E            
e|------------------x-----------x-----------x-------------------0--x--0-0----0---0---|| 
B|------------------x-----------x-----------x-------------------0--x--0-0----2---0---||  
G|------------------x-----------x-----------x----1--------------1--x--1-1----1---1---|| (x 2) 
D|-----------2-2h4--x---2--2h4--x---2--2h4--x--4---4--2-----2---2--x--2-2----2---2---||  
A|-------2-4--------x---0--0----x---0--0----x------------4------2--x--2-2----0---2---|| 
E|-0-2-4------------x-----------x-----------x-------------------0--x--0-0----0---0---|| 

Riff 2 
e|--------------------------| 
B|--------------------------| 
G|--------------------------| 
D|---6--6--4--4--2--2-------| 
A|--------------------------| 
E|--------------------------| 

Verse 
      Amaj7                      
Well if you don't want my character, 
  E                               
I suppose that it must be true 

Main Riff 
                        A                                       E            
e|------------------x-----------x-----------x-------------------0--x--0-0----0---0---|| 
B|------------------x-----------x-----------x-------------------0--x--0-0----2---0---||  
G|------------------x-----------x-----------x----1--------------1--x--1-1----1---1---|| (x 2) 
D|-----------2-2h4--x---2--2h4--x---2--2h4--x--4---4--2-----2---2--x--2-2----2---2---||  
A|-------2-4--------x---0--0----x---0--0----x------------4------2--x--2-2----0---2---|| 
E|-0-2-4------------x-----------x-----------x-------------------0--x--0-0----0---0---|| 

      Amaj7 
That I used up all of my tricks and charms 
     E                            
That I used when I first met you. 

Main Riff 
                        A                                       E            
e|------------------x-----------x-----------x-------------------0--x--0-0----0---0---|| 
B|------------------x-----------x-----------x-------------------0--x--0-0----2---0---||  
G|------------------x-----------x-----------x----1--------------1--x--1-1----1---1---|| (x 2) 
D|-----------2-2h4--x---2--2h4--x---2--2h4--x--4---4--2-----2---2--x--2-2----2---2---||  
A|-------2-4--------x---0--0----x---0--0----x------------4------2--x--2-2----0---2---|| 
E|-0-2-4------------x-----------x-----------x-------------------0--x--0-0----0---0---|| 

Chorus 
                        Amaj7         Amaj7         C/G           Db7 
Let me tell you that it hurts so bad, hurts so bad, hurts so bad (ooooh) 
             Amaj7                 Dmaj7      E     Amaj7   E     
To know that somebody else gets to be new for you. 

Main Riff 
                        A                                       E            
e|------------------x-----------x-----------x-------------------0--x--0-0----0---0---|| 
B|------------------x-----------x-----------x-------------------0--x--0-0----2---0---||  
G|------------------x-----------x-----------x----1--------------1--x--1-1----1---1---|| (x 2) 
D|-----------2-2h4--x---2--2h4--x---2--2h4--x--4---4--2-----2---2--x--2-2----2---2---||  
A|-------2-4--------x---0--0----x---0--0----x------------4------2--x--2-2----0---2---|| 
E|-0-2-4------------x-----------x-----------x-------------------0--x--0-0----0---0---|| 

verse 2 
           Amaj7 
I remember making you laugh, 
                                           E             Amaj7   E 
And seeing eyes that made me feel that 'on top of the spaceship' high, 
        Amaj7 
And I'm afraid that I can never do it again, 
E                              
Like somebody pulled the plug from the inside. 

Riff 2 
e|--------------------------| 
B|--------------------------| 
G|--------------------------| 
D|---6--6--4--4--2--2-------| 
A|--------------------------| 
E|--------------------------| 

Chorus 
Amaj7         Amaj7         C/G           Db7 
Hurts so bad, hurts so bad, hurts so bad (ooooh) 
             Amaj7         Fm7            B6         
To know that somebody else gets to be new for you. 
Ama7           Fm7     E     Amaj7  E 
I can never be new for you. 

Outro 
B7 


************************************ 

| x  Dead note 
| h  Hammer-on 

************************************ 
  

cifra enviadasem correções
enviado porenviada por:jov-correa
top 5 | erlend øye
top rock'n roll
Outras músicas do artista letras do(a) Erlend Øye
Top cifras »Top artistas »
Petaxxon Comunicação Online
Cifras.com.br - Melhor e mais completo site de cifras e tablaturas do Brasil
Mais de 1 milhão de acordes de músicas cadastradas desde 2003
As informações contidas no nosso site são colaborações de seus usuários e podem conter erros, sendo assim, não nos responsabilizamos sobre nenhuma destas.
close
menos
mais
close
Cor dos acordes:

Cor da letra:

 

save
close
close
 
redimensionar