Cifras e Tablaturas
Espers

Espers

Rosemary Lane

Cifras Cancelar Versão de Impressão Print

Espers - Rosemary Lane

Tom: Am

  			 

 

 



Verse: 
   Am                    C                     G                      Am 
E|--------------------|----------------------|----------------------|-----------------0--|--| 
B|-----1-----1--------|----------------1-----|--------0-------------|--------0h1---------|--| 
G|--------2-----------|-----0-------0-----0--|-----0-----0-------0--|-----2--------2-----|--| 
D|-----2-----2--------|--------0h2-----2--0--|----------------------|--------2-----2-----|--| 
A|--0-----------0--2--|--3-------------------|--------------0h2-----|--0-----------------|--| 
E|--------------------|----------------------|--3-------------------|--------------------|--| 


   Am                    C                     G                      D 
E|--------------------|---------------------|----------------------|--------0h2------2--|--| 
B|-----1-----1--------|-----1-----1---------|--------0-------------|--------3-----------|--| 
G|--------2-----------|--------0------------|-----0-----0-------0--|-----2--------2-----|--| 
D|-----2-----2--------|-----2-----2--0h2p0--|--------0-------------|--0--------------0--|--| 
A|--0-----------0--2--|--3-----------3---3--|--------------0h2-----|--------------------|--| 
E|--------------------|---------------------|--3-------------------|--------------------|--| 


    D                     Am                    C                    G 
E|--2h3---2-----2h3--2--|--0-----------------|--------------------|----------------------|--| 
B|----------------------|--------1-----------|-------1------------|--------0-------------|--| 
G|-----------2----------|-----2-----2--------|----------0---------|-----0-----0-------0--|--| 
D|--0-----0-----0----0--|--------2-----------|--0h2--2-----0h2p0--|----------------------|--| 
A|----------------------|--0-----------0--2--|--3----------3------|--------------0h2-----|--| 
E|----------------------|--------------------|--------------------|--3-------------------|--| 


    D                    D                     Am                    C 
E|--------0h2------2--|--2h3---2-----2h3--2--|--0-----------------|---------------------|--| 
B|--------3-----------|----------------------|--------1-----------|-------1-------------|--| 
G|-----2--------2-----|-----------2----------|-----2-----2--------|----------0----------|--| 
D|--0--------------0--|--0-----0-----0----0--|--------2-----------|--0h2--2-----0h2--0--|--| 
A|--------------------|----------------------|--0-----------0--2--|--3----------3----3--|--| 
E|--------------------|----------------------|--------------------|---------------------|--| 


    G                     Am                   Am                     Am 
E|----------------------|-----------------0--|----------------------|-----------------0--|--| 
B|--------0-------------|--------0h1---------|--------0h1-----1-----|--------0h1---------|--| 
G|-----0-----0-------0--|-----2--------2-----|-----2-------2-----2--|-----2--------2-----|--| 
D|--------0-------------|--------2-----2-----|----------------2-----|--------2-----2-----|--| 
A|--------------0h2-----|--0-----------------|--0-------------------|--0-----------------|--| 
E|--3-------------------|--------------------|----------------------|--------------------|--| 


   Am 
E|-----------------0--|--| 
B|--------0h1---------|--| 
G|-----2--------2-----|--| 
D|--------2-----2-----|--| 
A|--0-----------------|--| 
E|--------------------|--| 



Lead into the synth solo, played instead of the last 4 bars of the verse pattern. 


   Am                   Am/E                 Am                   Am/E 
E|--------------------|--------------------|--------------------|--------------------|--| 
B|--------1-----1-----|--------1-----1-----|--------1-----1-----|--------1-----1-----|--| 
G|-----2-----2-----2--|-----2-----2-----2--|-----2-----2-----2--|-----2-----2-----2--|--| 
D|--------------------|--------------------|--------------------|--------------------|--| 
A|--0-----------------|--------------------|--0-----------------|--------------------|--| 
E|--------------------|--0-----------------|--------------------|--0-----------------|--| 



Synth Solo: Repeat 4x then back into Verse. 



   Cadd9                                     Em/B 
E|--------0-----0-----|--------0-----0-----|--------0-----0-----|--------0-----0-----|--| 
B|-----3-----3-----3--|-----3-----3-----3--|-----3-----3-----3--|-----3-----3-----3--|--| 
G|--------------------|--------------------|--------------------|--------------------|--| 
D|--------------------|--------------------|--------------------|--------------------|--| 
A|--3-----------------|--3-----------------|--2-----------------|--2-----------------|--| 
E|--------------------|--------------------|--------------------|--------------------|--| 


   Ab5                                      Asus4 
E|--------0-----0-----|--------0-----0-----|--------0-----0-----|--------0-----0-----|--| 
B|-----3-----3-----3--|-----3-----3-----3--|-----3-----3-----3--|-----3-----3-----3--|--| 
G|--------------------|--------------------|--------------------|--------------------|--| 
D|--------------------|--------------------|--------------------|--------------------|--| 
A|--1-----------------|--1-----------------|--0-----------------|--0-----------------|--| 
E|--------------------|--------------------|--------------------|--------------------|--| 
 
    	
fixar
fixar inscrever-se

enviado porenviado por: gustsilva
cifra enviadaCorrigida por: sem correções
logo top cifrasComente
ico música do artistaMúsicas deste artista
ico curtiuCurtiu?
ico destaqueDestaque
Petaxxon Comunicação Online

Cifras.com.br - Melhor e mais completo site de cifras e tablaturas do Brasil Mais de 1 milhão de acordes de músicas cadastradas desde 2003
As informações contidas no nosso site são colaborações de seus usuários e podem conter erros, sendo assim, não nos responsabilizamos sobre nenhuma destas.

close
menos
mais
close
Cor dos acordes:

Cor da letra:

close
Alinhar acordes a direita Alinhar acordes a esquerda Alinhar acordes em baixo Alinhar acordes no topo
close
  Mostrar todos os acordes Esconder acordes muito fáceis Esconder acordes fáceis Esconder acordes intermediários
redimensionar
glossário