Cifras e Tablaturas
Eutenia

Eutenia

Espelho

Compositor : (Diego Inhof)

Cifras Cancelar Versão de Impressão
cifras

Eutenia - Espelho

fixar na tela  
Exibindo: vídeo-aula ver clipes redimensionar

Tom:

Dm

ver outros tons
  
Intro 00:16 

Guitarra 1: 

                                       Dm 
e|------------------------------------------------------------------------------|R 
B|------------------------------------------------------------------------------|E 
G|------------------------------------------------------------------------------|P 
D|-0---------------------0---------------------0--------------------------------|E 
A|-0---------------------0---------------------0--------------------------------|T 
D|-0-0-0-0-0-7-00-7-5~~--0--0-0-0-0-8-7-5-7~~--0--0-0-0-0-3-00-3-5-3-2-3-0-3* --|E 


Guitarra 2: 

                                       Dm 
e|------------------------------------------------------------------------------| 
B|------------------------------------------------------------------------------| 
G|------------------------------------------------------------------------------| 
D|-0-------------------0--0-0-0-0------------0--0-0-0-0-------------------------| 
A|-0-------------------0--0-0-0-0------------0--0-0-0-0-------------------------| 
D|-0-------------------0--0-0-0-0------------0--0-0-0-0--3-00-3-5-3-2-3-0-3*----| 


00:17 à 00:31 

Guitarra 1 

                                       Dm 
e|------------------------------------------------------------------------------|R 
B|------------------------------------------------------------------------------|E 
G|------------------------------------------------------------------------------|P 
D|-0---------------------0---------------------0--------------------------------|E 
A|-0---------------------0---------------------0--------------------------------|T 
D|-0-0-0-0-0-7-00-7-5~~--0--0-0-0-0-8-7-5-7~~--0--0-0-0-0-3-00-3-5-3-2-3-0-3* --|E 

Guitarra 2: 

                                       Dm 
e|------------------------------------------------------------------------------|R 
B|------------------------------------------------------------------------------|E 
G|-------------------------------------------------------------------------2*---|P 
D|-0-0-0-0-0-7-00-7-5~~--0--0-0-0-0-8-7-5-7~~--0--0-0-0-0-3-00-3-5-3-2-3-0------|E 
A|-0---------------------0---------------------0--------------------------------|T 
D|-0---------------------0---------------------0--------------------------------|E 


00:32 

             Dm 
e|--0~~~~~~~~~~~~~~~~~~~----| 
B|--3~~~~~~~~~~~~~~~~~~~----| 
G|--2~~~~~~~~~~~~~~~~~~~----| 
D|--0~~~~~~~~~~~~~~~~~~~----| 
A|--0~~~~~~~~~~~~~~~~~~~----| 
D|--0~~~~~~~~~~~~~~~~~~~----| 

____________________________________________________________________________________ 

Verso 1: 

(Um mero pedaço de vidro...) 

Guitarra 1 e 2: 00:36 à 01:00 repete 

                     Dm 
e|-----------------------------------------------------------------------------| 
B|-----------------------------------------------------------------------------| 
G|-----------------------------------------------------------------------------| 
D|------5-0-----------------5~----------------5-0--------------5~--------------| 
A|-----------------------------6-5-3-5----------------------------6-3-5~~------| 
D|-0~-0--------00--00--0--0--------------0~-0-----00--00--0--0-----------------| 


(1:00) - O sangue não irá secar... 


     F       Gm     G#o       A7 
e|------------------------------------------| 
B|------------------------------------------| 
G|------------------------------------------| 
D|-------------------------7--7--7----------| 
A|-333333--555555--555555--7--7--7----------| 
D|-333333--555555--666666--7--7--7----------| 


(E a gota irá cair...) repete o trecho 

              Dm                G#o    Gm     F 
e|--------------------------------------------------| 
B|--------------------------------------------------| 
G|--------------------------------------------------| 
D|-0~-0-5-0----00--00--0--5~------------------------| 
A|-0~-0-5-0----00--00--0--5~--666666-555555-333333--| 
D|-0~-0-5-0----00--00--0--5~--666666-555555-333333--| 
                      
                      Dm 
e|-------------------------------------------| 
B|-------------------------------------------| 
G|----------------------------8/7-x-5/7------| 
D|-0~-0-5-0--00--00--0--0-5~-----------------| 
A|-0~-0-5-0--00--00--0--0-5~--6/5-x-3/5------| 
D|-0~-0-5-0--00--00--0--0-5~-----------------| 


(1:20).. 

       F           Gm        G#o        A  Gm F 
e|-----------------------------------------------------| 
B|-----------------------------------------------------| 
G|-----------------------------------------------------| 
D|------3~~~~--------5~~~~---------------7--5--3-------| 
A|------3~~~~--------5~~~~-------5~~~~---7--5--3-------| 
D|-333--3~~~~---555--5~~~~---666-6~~~~---7--5--3-------| 


____________________________________________________________________________________ 

Refrão: (Apenas um segundo...) 

Guitarra 1: 


     Dm           Dm       Bb                  C 
e|-----------------------------------------------------------------------------| 
B|-----------------------------------------------------------------------------| 
G|-------------------------3~~~~--3x---------3-5~~~~--12/14\12\10--------------| 
D|-0~~~~--2-3--0~~~~--3-2--3~~~~--3x---------3-5~~~~---------------------------| 
A|-0~~~~--2-3--0~~~~--3-2--1~~~~--1x-1111111-1-3~~~~--10/12\10\08--------------| 
D|-0~~~~--2-3--0~~~~--3-2------------------------------------------------------| 

      Dm       Bb                 C                C 
e|-------------------------------------------------------------------| 
B|-------------------------------------------------------------------| 
G|-------------3~~~~--3x--------3-5~~~~--5~~-x-5-x-5~-10/12\10\08----| 
D|-0~~~~--3-2--3~~~~--3x--------3-5~~~~--5~~-x-5-x-5~----------------| 
A|-0~~~~--3-2--1~~~~--1x-111111-1-3~~~~--3~~-x-3-x-3~-10/12\10\08----| 
D|-0~~~~--3-2--------------------------------------------------------| 


Guitarra 2: 

     Dm                           Dm                           Bb          C 
e|-----------------------------------------------------------------------------| 
B|-10~-10-10-10-10-10-10--11--10~-10~-10-10-10-10-10-10--11-10-11/6-6-6-6/8~---| 
G|-10~-10-10-10-10-10-10--10--10~-10~-10-10-10-10-10-10--10-10-10/5-5h7-7/9~---| 
D|-----------------------------------------------------------------------------| 
A|-----------------------------------------------------------------------------| 
D|-----------------------------------------------------------------------------| 


        C 
e|-----------------| 
B|-8~--------------| 
G|-9~---9/10\9\7---| 
D|-----------------| 
A|------7/08\7\5---| 
D|-----------------| 


         Dm                       Bb          C 
e|---------------------------------------------------------------------| 
B|--10~-10-10-10-10-10-10--11-10-11/6-6-6-6/8~-8~--x8-x8~~-------------| 
G|--10~-10-10-10-10-10-10--10-10-10/5-5h7-7/9~-9~--x9-x9~~--9/10\9\7---| 
D|---------------------------------------------------------------------| 
A|----------------------------------------------------------7/08\7\5---| 
D|---------------------------------------------------------------------| 


(01:41 - Vejo um monstro tão familiar...) 

Guitarra 1: 
  
         Dm          Bb                  C 
e|--------------------------------------------------------------------------| 
B|--------------------------------------------------------------------------| 
G|-------------------3~----3~------3~-x-5~----5~-------x-5-x-5~--9/10\9\7---| 
D|-0----0-------3-2--3~----3~------3~-x-5~----5~-------x-5-x-5~-------------| 
A|-0----0-------3-2--1~-11-1~-1111-1~-x-3~-33-3~-33333-x-3-x-3~--7/08\7\5---| 
D|-0-00-0-0000--3-2---------------------------------------------------------| 


Guitarra 2: 

              Dm         Bb                         C 
e|-----------------------------------------------------------15-17-15-13----| 
B|----15--17--18-15~~----15--17--18-17~--18-17----15h17-15~-----------------| 
G|-/14--14--14--------/14--14--14--------------17---------------------------| 
D|--------------------------------------------------------------------------| 
A|--------------------------------------------------------------------------| 
D|--------------------------------------------------------------------------| 


              Dm         Bb                         C 
e|-------------------------------------------------------------------------| 
B|----15--17--18-15~----15--17--18-17~--18-17----15h17-15~-----------------| 
G|-/14--14--14-------/14--14--14--------------17---------------------------| 
D|-------------------------------------------------------------------------| 
A|-------------------------------------------------------------------------| 
D|-------------------------------------------------------------------------| 


Guitarra 3: 

              Dm        Bb                    C 
e|----------------------------------------------------------18-20-18-17----| 
B|----18--20--22-18~----18--20--22-20~--22-20----18h20-18~-----------------| 
G|-/19--19--19-------/19--19--19--------------21---------------------------| 
D|-------------------------------------------------------------------------| 
A|-------------------------------------------------------------------------| 
D|-------------------------------------------------------------------------| 

              Dm        Bb                    C 
e|-----------------------------------------------------------| 
B|----18--20--22-18~----18--20--22-20~--22-20----18h20-18~---| 
G|-/19--19--19-------/19--19--19--------------21-------------| 
D|-----------------------------------------------------------| 
A|-----------------------------------------------------------| 
D|-----------------------------------------------------------| 

____________________________________________________________________________________ 

(1:56) 

Guitarra 1 e 2:     

   Dm     Bb  A       Bb  A     Dm9   Dm    Bb   A     Eb   C   Dm 
e|-----------------------------0~~~~------------------------------------| 
B|-----------------------------3~~~~------------------------------------| 
G|-7~~~~-----------------------2~~~~--7~~~~-------------8~~-5~~-7~~~~---| 
D|-7~~~~--8~~-7~~~~---8~~-7~~--0~~~~--7~~~~--8~~-7~~~~--8~~-5~~-7~~~~---| 
A|-5~~~~--8~~-7~~~~---8~~-7~~--0~~~~--5~~~~--8~~-7~~~~--6~~-3~~-5~~~~---| 
D|--------8~~-7~~~~---8~~-7~~--0~~~~---------8~~-7~~~~----------0~~~~---| 

____________________________________________________________________________________ 

Verso 2: 

(De quem será que é a culpa...) 

Guitarra 1 e 2: 02:15 à 03:02 repete 

                     Dm 
e|-----------------------------------------------------------------------------| 
B|-----------------------------------------------------------------------------| 
G|-----------------------------------------------------------------------------| 
D|------5-0-----------------5~----------------5-0--------------5~--------------| 
A|-----------------------------6-5-3-5----------------------------6-3-5~~------| 
D|-0~-0--------00--00--0--0--------------0~-0-----00--00--0--0-----------------| 


(2:38) - É meu prazer.. 


     F       Gm     G#o       A7 
e|------------------------------------------| 
B|------------------------------------------| 
G|------------------------------------------| 
D|-------------------------7--7--7----------| 
A|-333333--555555--555555--7--7--7----------| 
D|-333333--555555--666666--7--7--7----------| 


(E a gota já caiu...) repete o trecho 

              Dm                G#o    Gm     F 
e|--------------------------------------------------| 
B|--------------------------------------------------| 
G|--------------------------------------------------| 
D|-0~-0-5-0----00--00--0--5~------------------------| 
A|-0~-0-5-0----00--00--0--5~--666666-555555-333333--| 
D|-0~-0-5-0----00--00--0--5~--666666-555555-333333--| 
                      
                      Dm 
e|-------------------------------------------| 
B|-------------------------------------------| 
G|----------------------------8/7-x-5/7------| 
D|-0~-0-5-0--00--00--0--0-5~-----------------| 
A|-0~-0-5-0--00--00--0--0-5~--6/5-x-3/5------| 
D|-0~-0-5-0--00--00--0--0-5~-----------------| 


(2:58).. 

       F           Gm        G#o        A  Gm F 
e|-----------------------------------------------------| 
B|-----------------------------------------------------| 
G|-----------------------------------------------------| 
D|------3~~~~--------5~~~~---------------7--5--3-------| 
A|------3~~~~--------5~~~~-------5~~~~---7--5--3-------| 
D|-333--3~~~~---555--5~~~~---666-6~~~~---7--5--3-------| 


____________________________________________________________________________________ 

Refrão: (Apenas um segundo...) 

Guitarra 1: 


     Dm           Dm       Bb                  C 
e|-----------------------------------------------------------------------------| 
B|-----------------------------------------------------------------------------| 
G|-------------------------3~~~~--3x---------3-5~~~~--12/14\12\10--------------| 
D|-0~~~~--2-3--0~~~~--3-2--3~~~~--3x---------3-5~~~~---------------------------| 
A|-0~~~~--2-3--0~~~~--3-2--1~~~~--1x-1111111-1-3~~~~--10/12\10\08--------------| 
D|-0~~~~--2-3--0~~~~--3-2------------------------------------------------------| 

      Dm       Bb                 C                C 
e|-------------------------------------------------------------------| 
B|-------------------------------------------------------------------| 
G|-------------3~~~~--3x--------3-5~~~~--5~~-x-5-x-5~-10/12\10\08----| 
D|-0~~~~--3-2--3~~~~--3x--------3-5~~~~--5~~-x-5-x-5~----------------| 
A|-0~~~~--3-2--1~~~~--1x-111111-1-3~~~~--3~~-x-3-x-3~-10/12\10\08----| 
D|-0~~~~--3-2--------------------------------------------------------| 


Guitarra 2: 

     Dm                           Dm                           Bb          C 
e|-----------------------------------------------------------------------------| 
B|-10~-10-10-10-10-10-10--11--10~-10~-10-10-10-10-10-10--11-10-11/6-6-6-6/8~---| 
G|-10~-10-10-10-10-10-10--10--10~-10~-10-10-10-10-10-10--10-10-10/5-5h7-7/9~---| 
D|-----------------------------------------------------------------------------| 
A|-----------------------------------------------------------------------------| 
D|-----------------------------------------------------------------------------| 


        C 
e|-----------------| 
B|-8~--------------| 
G|-9~---9/10\9\7---| 
D|-----------------| 
A|------7/08\7\5---| 
D|-----------------| 


         Dm                       Bb          C 
e|---------------------------------------------------------------------| 
B|--10~-10-10-10-10-10-10--11-10-11/6-6-6-6/8~-8~--x8-x8~~-------------| 
G|--10~-10-10-10-10-10-10--10-10-10/5-5h7-7/9~-9~--x9-x9~~--9/10\9\7---| 
D|---------------------------------------------------------------------| 
A|----------------------------------------------------------7/08\7\5---| 
D|---------------------------------------------------------------------| 


(01:41 - Vejo um monstro tão familiar...) 

Guitarra 1: 
  
         Dm          Bb                  C 
e|--------------------------------------------------------------------------| 
B|--------------------------------------------------------------------------| 
G|-------------------3~----3~------3~-x-5~----5~-------x-5-x-5~--9/10\9\7---| 
D|-0----0-------3-2--3~----3~------3~-x-5~----5~-------x-5-x-5~-------------| 
A|-0----0-------3-2--1~-11-1~-1111-1~-x-3~-33-3~-33333-x-3-x-3~--7/08\7\5---| 
D|-0-00-0-0000--3-2---------------------------------------------------------| 


Guitarra 2: 

              Dm         Bb                         C 
e|-----------------------------------------------------------15-17-15-13----| 
B|----15--17--18-15~~----15--17--18-17~--18-17----15h17-15~-----------------| 
G|-/14--14--14--------/14--14--14--------------17---------------------------| 
D|--------------------------------------------------------------------------| 
A|--------------------------------------------------------------------------| 
D|--------------------------------------------------------------------------| 


              Dm         Bb                         C 
e|-------------------------------------------------------------------------| 
B|----15--17--18-15~----15--17--18-17~--18-17----15h17-15~-----------------| 
G|-/14--14--14-------/14--14--14--------------17---------------------------| 
D|-------------------------------------------------------------------------| 
A|-------------------------------------------------------------------------| 
D|-------------------------------------------------------------------------| 


Guitarra 3: 

              Dm        Bb                    C 
e|----------------------------------------------------------18-20-18-17----| 
B|----18--20--22-18~----18--20--22-20~--22-20----18h20-18~-----------------| 
G|-/19--19--19-------/19--19--19--------------21---------------------------| 
D|-------------------------------------------------------------------------| 
A|-------------------------------------------------------------------------| 
D|-------------------------------------------------------------------------| 

              Dm        Bb                    C 
e|-----------------------------------------------------------| 
B|----18--20--22-18~----18--20--22-20~--22-20----18h20-18~---| 
G|-/19--19--19-------/19--19--19--------------21-------------| 
D|-----------------------------------------------------------| 
A|-----------------------------------------------------------| 
D|-----------------------------------------------------------| 

____________________________________________________________________________________ 


Repete Intro (03:34) 

Guitarra 1: 

                                       Dm 
e|------------------------------------------------------------------------------|R 
B|------------------------------------------------------------------------------|E 
G|------------------------------------------------------------------------------|P 
D|-0---------------------0---------------------0--------------------------------|E 
A|-0---------------------0---------------------0--------------------------------|T 
D|-0-0-0-0-0-7-00-7-5~~--0--0-0-0-0-8-7-5-7~~--0--0-0-0-0-3-00-3-5-3-2-3-0-3* --|E 


Guitarra 2: 

                                       Dm 
e|------------------------------------------------------------------------------|R 
B|------------------------------------------------------------------------------|E 
G|-------------------------------------------------------------------------2*---|P 
D|-0-0-0-0-0-7-00-7-5~~--0--0-0-0-0-8-7-5-7~~--0--0-0-0-0-3-00-3-5-3-2-3-0------|E 
A|-0---------------------0---------------------0--------------------------------|T 
D|-0---------------------0---------------------0--------------------------------|E 


             Dm 
e|--0~~~~~~~~~~~~~~~~~~~----| 
B|--3~~~~~~~~~~~~~~~~~~~----| 
G|--2~~~~~~~~~~~~~~~~~~~----| 
D|--0~~~~~~~~~~~~~~~~~~~----| 
A|--0~~~~~~~~~~~~~~~~~~~----| 
D|--0~~~~~~~~~~~~~~~~~~~----| 

____________________________________________________________________________________ 

Bridge: 


Guitarra 1 (repete durante toda a bridge) 03:50 à 04:41 

                           Dm                                                   A 
e|------------------------------------------------------------------------------------| 
B|------------------------------------------------------------------------------------| 
G|------------------------------------------------------------------------------------| 
D|-0~---------5----------7-----5---5-----1-0~----------5------7------------7--5-7--7--| 
A|-0~---6-5-----6-5--555-5-333-3-x-3*-33-1-0~----6-5-----6-5--5-5555555555-7--5-7--7--| 
D|-0~-x-----6----------------------------1-0~--x-----6---------------------7--5-7--7--| 


Guitarra 2 (03:50 à 04:00)  

e|---------------------------------------------------------------| 
B|---------------------------------------------------------------| 
G|---------------------------------------------------------------| 
D|-0~~~~~~~~~~~~~~~~----1~~~~--0~~~~~~~~--------------7--5-7--7--| 
A|-0~~~~~~~~~~~~~~~~----1~~~~--0~~~~~~~~--55555555555-7--5-7--7--| 
D|-0~~~~~~~~~~~~~~~~----1~~~~--0~~~~~~~~--------------7--5-7--7--| 

           (04:01 à 04:10) 

                           Dm                                                   A 
e|------------------------------------------------------------------------------------| 
B|------------------------------------------------------------------------------------| 
G|------------------------------------------------------------------------------------| 
D|-0~---------5----------7-----5---5-----1-0~----------5------7------------7--5-7--7--| 
A|-0~---6-5-----6-5--555-5-333-3-x-3*-33-1-0~----6-5-----6-5--5-5555555555-7--5-7--7--| 
D|-0~-x-----6----------------------------1-0~--x-----6---------------------7--5-7--7--| 

           (04:10 à 04:41) 

     Dm 
e|--------------------------------------------------------| 
B|-/15-10-11-8~---/11-10~--8-10-11-10~--------------------| 
G|--------------------------------------7-7-7-------------| 
D|--------------------------------------------------------| 
A|--------------------------------------------------------| 
D|--------------------------------------------------------| 


Guitarra 3: (04:10 à 04:41) 

        Dm 
e|--------------------------------------------------------| 
B|-/18-14-15-10~---/18-17~--15-17-18-17~------------------| 
G|----------------------------------------14-14-14--------| 
D|--------------------------------------------------------| 
A|--------------------------------------------------------| 
D|--------------------------------------------------------| 

____________________________________________________________________________________ 

Refrão 3: 

Guitarra 1 CLEAN (04:41 à 04:55) 

       Dm9             Bb9       C9 
e|-------1-0-----------1-------------0-------------0-1-0-----| 
B|----3------3------1----1--------3-----3-------3--------3---| 
G|---2-2-------2---3-3-----3-----0-0---0-0-----0-0-----------| 
D|---------------------------3-------------2-----------------| 
A|---------------1-------------3-------------3---------------| 
D|-0---------------------------------------------------------| 

       Dm9             Bb9       C9 
e|-------1-0-----------1-------------0--------------| 
B|----3------3------1----1--------3-----3-----------| 
G|---2-2-------2---3-3-----3-----0-0---0-0----------| 
D|---------------------------3-------------2--------| 
A|---------------1-------------3-------------3------| 
D|-0------------------------------------------------| 

Guitarra 2 (dueto) 

               Dm9        Bb9          C9              Dm         
e|-18-20-18-17------------------------------------------------| 
B|-------------18~--20~--18~--20~-17/13-13~--15~~~~--18~~~~---| 
G|------------------------------------------------------------| 
D|------------------------------------------------------------| 
A|------------------------------------------------------------| 
D|------------------------------------------------------------| 

Guitarra 3 (dueto) 

               Dm9        Bb9         C9               Dm 
e|-15-17-15-13-----------------------------------------------| 
B|-------------15~--18~--15~--18~--13/8-8~--10~~~~--15~~~~---| 
G|-----------------------------------------------------------| 
D|-----------------------------------------------------------| 
A|-----------------------------------------------------------| 
D|-----------------------------------------------------------| 


Distortion Guitar 

            C 
e|------------------------------| 
B|------------------------------| 
G|------------------------------| 
D|-5-5-5-5--5-5-5-5--5-5--------| 
A|-3-3-3-3--3-3-3-3--3-3--------| 
D|------------------------------| 


(Vejo um monstro tão familiar...) 

Guitarra 1: 

Dm       Bb                 C                C 
e|-------------------------------------------------------------------|R 
B|-------------------------------------------------------------------|E 
G|-------------3~~~~--3x--------3-5~~~~--5~~-x-5-x-5~-10/12\10\08----|P 
D|-0~~~~--3-2--3~~~~--3x--------3-5~~~~--5~~-x-5-x-5~----------------|E 
A|-0~~~~--3-2--1~~~~--1x-111111-1-3~~~~--3~~-x-3-x-3~-10/12\10\08----|T 
D|-0~~~~--3-2--------------------------------------------------------|E 


Guitarra 2: 

           Dm                       Bb          C 
e|---------------------------------------------------------------------|R 
B|--10~-10-10-10-10-10-10--11-10-11/6-6-6-6/8~-8~--x8-x8~~-------------|E 
G|--10~-10-10-10-10-10-10--10-10-10/5-5h7-7/9~-9~--x9-x9~~--9/10\9\7---|P 
D|---------------------------------------------------------------------|E 
A|----------------------------------------------------------7/08\7\5---|T 
D|---------------------------------------------------------------------|E 


(05:13...) 

Guitarra 1: 
  
         Dm          Bb                  C 
e|--------------------------------------------------------------------------|R 
B|--------------------------------------------------------------------------|E 
G|-------------------3~----3~------3~-x-5~----5~-------x-5-x-5~--9/10\9\7---|P 
D|-0----0-------3-2--3~----3~------3~-x-5~----5~-------x-5-x-5~-------------|E 
A|-0----0-------3-2--1~-11-1~-1111-1~-x-3~-33-3~-33333-x-3-x-3~--7/08\7\5---|T 
D|-0-00-0-0000--3-2---------------------------------------------------------|E 


Guitarra 2: 

              Dm         Bb                         C 
e|-----------------------------------------------------------15-17-15-13----| 
B|----15--17--18-15~~----15--17--18-17~--18-17----15h17-15~-----------------| 
G|-/14--14--14--------/14--14--14--------------17---------------------------| 
D|--------------------------------------------------------------------------| 
A|--------------------------------------------------------------------------| 
D|--------------------------------------------------------------------------| 


              Dm         Bb                         C 
e|-------------------------------------------------------------------------| 
B|----15--17--18-15~----15--17--18-17~--18-17----15h17-15~-----------------| 
G|-/14--14--14-------/14--14--14--------------17---------------------------| 
D|-------------------------------------------------------------------------| 
A|-------------------------------------------------------------------------| 
D|-------------------------------------------------------------------------| 


Guitarra 3: 

              Dm        Bb                    C 
e|----------------------------------------------------------18-20-18-17----| 
B|----18--20--22-18~----18--20--22-20~--22-20----18h20-18~-----------------| 
G|-/19--19--19-------/19--19--19--------------21---------------------------| 
D|-------------------------------------------------------------------------| 
A|-------------------------------------------------------------------------| 
D|-------------------------------------------------------------------------| 

              Dm        Bb                    C 
e|-----------------------------------------------------------| 
B|----18--20--22-18~----18--20--22-20~--22-20----18h20-18~---| 
G|-/19--19--19-------/19--19--19--------------21-------------| 
D|-----------------------------------------------------------| 
A|-----------------------------------------------------------| 
D|-----------------------------------------------------------| 

____________________________________________________________________________________ 

End: 


Guitarra 1 e 2:     

   Dm     Bb  A        Eb   C   Dm 
e|---------------------------------| 
B|---------------------------------| 
G|-7~~~~----------------8~~-5~~-7--| 
D|-7~~~~--8~~-7~~~~-----8~~-5~~-7--| 
A|-5~~~~--8~~-7~~~~-----6~~-3~~-5--| 
D|--------8~~-7~~~~----------------| 
  

cifra enviadasem correções
enviado porenviada por:Diego-Eutenia
top 5 | eutenia
top rock'n roll
Outras músicas do artista letras do(a) Eutenia
Top cifras »Top artistas »
Petaxxon Comunicação Online
Cifras.com.br - Melhor e mais completo site de cifras e tablaturas do Brasil
Mais de 1 milhão de acordes de músicas cadastradas desde 2003
As informações contidas no nosso site são colaborações de seus usuários e podem conter erros, sendo assim, não nos responsabilizamos sobre nenhuma destas.
close
menos
mais
close
Cor dos acordes:

Cor da letra:

 

save
close
close
 
redimensionar