Cifras e Tablaturas
Every Time I Die

Every Time I Die

Religion Of Speed

Cifras Cancelar Versão de Impressão
cifras

Every Time I Die - Religion Of Speed

fixar na tela  
Exibindo: vídeo-aula ver clipes redimensionar
  
Intro (0:00) 

Acoustic Guitar 

e|-------0-----------0-----|-------0-----------0-----|-------0-----------0-----|-------0-----------0-----| 
B|---4-----4-----4-----4---|---4-----4-----4-----4---|---2-----2-----2-----2---|---2-----2-----2-----2---| 
G|-6---6-----6-5---5-----5-|-6---6-----6-5---5-----5-|-3---3-----3-0---0-----0-|-3---3-----3-0---0-----0-| 3x 
D|-------------------------|-------------------------|-------------------------|-------------------------| 
A|-------------------------|-------------------------|-------------------------|-------------------------| 
D|-------------------------|-------------------------|-------------------------|-------------------------| 

e|-------0-----------0-----|-------0-----------0-----| 
B|---4-----4-----4-----4---|---4-----4-----4-----4---| 
G|-6---6-----6-5---5-----5-|-6---6-----6-5---5-----5-| 
D|-------------------------|-------------------------| 
A|-------------------------|-------------------------| 
D|-------------------------|-------------------------| 

Guitars 1 + 2 (0:08) 

e|---------------|---------------|---------------|---------------|-------| 
B|---------------|---------------|---------------|---------------|-------| 
G|-6------5------|-6------5------|-3-------------|-3-------------|-6-----| 
D|-6------5------|-6------5------|-3------5------|-3------5------|-6-----| 
A|-4------3------|-4------3------|-1------5------|-1------5------|-4-----| 
D|---------------|---------------|--------5------|--------5------|-------| 

e|---------------|---------------|---------------|---------------|---------------|-----------------------| 
B|---------------|---------------|---------------|---------------|---------------|-----------------------| 
G|-3-------------|-3-------------|-6------5------|-6------5------|-3-------------|-3---------------------| 
D|-3------5------|-3------5------|-6------5------|-6------5------|-3------5------|-3------5--------------| 
A|-1------5------|-1------5------|-4------3------|-4------3------|-1------5------|-1------5--1-----5-1---| 
D|--------5------|--------5------|---------------|---------------|--------5------|--------5----3-6-----0-| 


Verse (0:31) 

Guitar 1 

e|-----------------|-----------------|-----------------| 
B|-----------------|-----------------|-----------------| 
G|-----------------|-----------------|-----------------| 3x 
D|-----------------|-----------------|-----------------| 
A|-1-0-0-0-1-0-1-0-|-0-0-1-0-1-0-0-0-|-1-0-1-----5-1---| 
D|-3-0-0-0-3-0-3-0-|-0-0-3-0-3-0-0-0-|-3-0---3-6-----0-| 
PM   |---|   -   |-----|   -   |---|     - 

e|-----------------|-----------------|-----------------|-------------| 
B|-----------------|-----------------|-----------------|-------------| 
G|-----------------|-----------------|-----------------|-------------| 
D|-----------------|-----------------|-----------------|-----6-------| 
A|-1-0-0-0-1-0-1-0-|-0-0-1-0-1-0-0-0-|-1-0-1-----5-1---|-------5-8-4-| 
D|-3-0-0-0-3-0-3-0-|-0-0-3-0-3-0-0-0-|-3-0---3-6-----0-|-6-3---------| 
PM   |---|   -   |-----|   -   |---|     - 

    (0:48) 
e||-----------------|-----------------|-----------------| 
B||-----------------|-----------------|-----------------| 
G||-----------------|-----------------|-----------------| 
D||-----------------|-----------------|-----------------| 
A||-5-5-5-5-5-5-5-5-|-5-5-5-5-5-5-5-5-|-5-5-5-5-5-5-5-5-| 
D||-6-6-6-6-6-6-6-6-|-6-6-6-6-3-3-3-3-|-3-3-3-3-3-3-3-3-| 
PM    |---|   -   |-----|   -   |---|     -   |---|   - 

e|-----------------|-----------------|-----------------|| 
B|-----------------|-----------------|-----------------|| 
G|-----------------|-----------------|-----------------|| 2x 
D|-----------------|-----------------|---------6-------|| 
A|-5-5-5-5-5-5-5-5-|-5-5-5-5-5-5-5-5-|-5-5-------5-8-4-|| 
D|-6-6-6-6-6-6-6-6-|-6-6-6-6-3-3-3-3-|-3-3-6-3---------|| 
PM   |---|   -   |-----|   -   |---|     - 

Guitar 2 

e|-----------------|-----------------|-----------------| 
B|-----------------|-----------------|-----------3-----| 
G|-----------------|-----------------|-----3---1---3---| 
D|-----------------|-----------------|-------3-------3-| 
A|-1-0-0-0-1-0-1-0-|-0-0-1-0-1-0-0-0-|-1-0-------------| 
D|-3-0-0-0-3-0-3-0-|-0-0-3-0-3-0-0-0-|-3-0-------------| 
PM   |---|   -   |-----|   -   |---|     - 

e|-----------------|-----------------|-----------------| 
B|-----------------|-----------------|-----------------| 
G|-----------------|-----------------|-----------------| 
D|-----------------|-----------------|-----------------| 
A|-1-0-0-0-1-0-1-0-|-0-0-1-0-1-0-0-0-|-1-0-1-----5-1---| 
D|-3-0-0-0-3-0-3-0-|-0-0-3-0-3-0-0-0-|-3-0---3-6-----0-| 
PM   |---|   -   |-----|   -   |---|     - 

e|-----------------|-----------------|-----------------| 
B|-----------------|-----------------|-----------3-----| 
G|-----------------|-----------------|-----3---1---3---| 
D|-----------------|-----------------|-------3-------3-| 
A|-1-0-0-0-1-0-1-0-|-0-0-1-0-1-0-0-0-|-1-0-------------| 
D|-3-0-0-0-3-0-3-0-|-0-0-3-0-3-0-0-0-|-3-0-------------| 
PM   |---|   -   |-----|   -   |---|     - 

e|-----------------|-----------------|-----------------|-------------| 
B|-----------------|-----------------|-----------------|-------------| 
G|-----------------|-----------------|-----------------|-----6-------| 
D|-----------------|-----------------|-----------------|-------------| 
A|-1-0-0-0-1-0-1-0-|-0-0-1-0-1-0-0-0-|-1-0-1-----5-1---|-------5-8-4-| 
D|-3-0-0-0-3-0-3-0-|-0-0-3-0-3-0-0-0-|-3-0---3-6-----0-|-6-3---------| 
PM   |---|   -   |-----|   -   |---|     - 

    (0:48) 
e|-----------------|-----------------|-----------------| 
B|-----------------|-----------------|-----------------| 
G|-----------------|-----------------|-----------------| 
D|-----------------|-----------------|-----------------| 
A|-5-5-5-5-5-5-5-5-|-5-5-5-5-5-5-5-5-|-5-5-5-5-5-5-5-5-| 
D|-6-6-6-6-6-6-6-6-|-6-6-6-6-3-3-3-3-|-3-3-3-3-3-3-3-3-| 
PM   |---|   -   |-----|   -   |---|     -   |---|   - 

e|-----------------|-----------------|-----------------| 
B|-----------------|-----------------|-----------------| 
G|-----------------|-----------------|---------6-------| 
D|-----------------|-----------------|-----------------| 
A|-5-5-5-5-5-5-5-5-|-5-5-5-5-5-5-5-5-|-5-5-------5-8-4-| 
D|-6-6-6-6-6-6-6-6-|-6-6-6-6-3-3-3-3-|-3-3-6-0---------| 
PM   |---|   -   |-----|   -   |---|     - 

e|-----------------|-----------------|-----------------| 
B|-----------------|-----------------|-----------------| 
G|-----------------|-----------------|-----------------| 
D|-----------------|-----------------|-----------------| 
A|-5-5-5-5-5-5-5-5-|-5-5-5-5-5-5-5-5-|-5-5-5-5-5-5-5-5-| 
D|-6-6-6-6-6-6-6-6-|-6-6-6-6-3-3-3-3-|-3-3-3-3-3-3-3-3-| 
PM   |---|   -   |-----|   -   |---|     -   |---|   - 

e|-----------------|-----------------|-----------------| 
B|-----------------|-----------------|-----------------| 
G|-----------------|-----------------|---------6-------| 
D|-----------------|-----------------|-----------------| 
A|-5-5-5-5-5-5-5-5-|-5-5-5-5-5-5-5-5-|-5-5-------5-8-4-| 
D|-6-6-6-6-6-6-6-6-|-6-6-6-6-3-3-3-3-|-3-3-6-0---------| 
PM   |---|   -   |-----|   -   |---|     - 

I can't continue on without a sign 
One wing to haul the weight of only one third of an eye 
The voice I'm leaning into has been thrown 
When all the meat is stripped away I'm chewing on the bone 

I'm condemned until the moment I forget 
That I haven't learned a goddamn thing yet 
My soul is sticking out like a talon through a shell 
You can wait until the rapture, I will hightail it to hell 


Pre-Chorus (1:04) 

Guitars 1 + 2 

e|-----------------|---------------------| 
B|-----------------|---------------------| 
G|-6---8-----------|-6---8---------------| 
D|-----------------|---------------------| 
A|-5---4---5---5---|-5---4---5-5-5-5-5-5-| 
D|---------3---6---|---------3h6-6-6-6-6-| 
PM                               |-----| 

e|-----------------|---------------------| 
B|-----------------|---------------------| 
G|-6---8-----------|-6---8---------------| 2x 
D|-----------------|---------------------| 
A|-5---4---5---5---|-5---4---5-5-5-5-5-5-| 
D|---------3---6---|---------3-3-3-3-3-3-| 
PM                             |-------| 

Guitar 1 

e|-------------|----------------| 
B|-------------|---------5------| 
G|-------------|-6-5---3---3--7-| 
D|-------------|-----5----------| 
A|-1-----5-1---|--------------5-| 
D|---3-6-----3-|----------------| 

Guitar 2 

e|-------------|---------3------| 
B|-------------|-5-4---2---2----| 
G|-------------|-----3--------7-| 
D|-------------|----------------| 
A|-------------|--------------5-| 
D|-------------|----------------| 

Water everywhere but no water fit to drink 
I've got endless proof and I don't know what to think 
Nothing but time, not a minute left to spare 
Gallons of fuel, I can't get anywhere 


Chorus (1:23) 

Guitar 1 

e|---------------|-----------------|---------------|-----------------| 
B|---------------|-----------------|---------------|-----------------| 
G|---------------|---------------7-|---------------|---------------7-| 
D|---------------|-----------------|---------------|-----------------| 
A|---------------|---------------5-|---------------|---------------5-| 
D|---0-0-0-0-0-0-|-0-0-0-0-0-0-0---|---0-0-0-0-0-0-|-0-0-0-0-0-0-0---| 

e|---------------|-----------------|---------------|      |----------------| 
B|---------------|-----------------|---------------|      |---------5------| 
G|---------------|---------------7-|---------------|      |-6-5---3---3--7-| 2x 
D|---------------|-----------------|---------------|      |-----5----------| 
A|---------------|---------------5-|---------------|      |--------------5-| 
D|---0-0-0-0-0-0-|-0-0-0-0-0-0-0---|---0-0-0-0-0-0-|      |----------------| 
                                                            1st Ending 
e|-----------------------| 
B|----------------5-5-5--| 
G|-6-5---3-----3---------| 
D|-----5---5-5-----------| 
A|-----------------------| 
D|-----------------------| 
   2nd Ending 

Guitar 2 

e|---------------|-----------------|---------------|------------------| 
B|---------------|-----------------|---------------|---------------10-| 
G|---------------|---------------7-|---------------|------------------| 
D|---------------|-----------------|---------------|---------------7--| 
A|---------------|---------------5-|---------------|------------------| 
D|---0-0-0-0-0-0-|-0-0-0-0-0-0-0---|---0-0-0-0-0-0-|-0-0-0-0-0-0-0----| 

e|---------------|-------------------|---------------|      |---------3------| 
B|---7-7-7-7-7-7-|-7h8p7-5-7-7-8-----|---------------|      |-5-4---2---2----| 
G|---------------|-------------------|---------------|      |-----3--------7-| 2x 
D|---4-4-4-4-4-4-|-4h5p4-2-4-4-5--4*-|---------------|      |----------------| 
A|---------------|-------------------|---------------|      |--------------5-| 
D|---------------|-------------------|---0-0-0-0-0-0-|      |----------------| 
                                                            1st Ending 
e|----------------3-3-3--| 
B|-5-4---2-----2---------| 
G|-----3---3-3-----------| 
D|-----------------------| 
A|-----------------------| 
D|-----------------------| 
   2nd Ending 

When all I am is a stone that says 
The name I had and the years that I had been 
The quiet depths and the measured steps 
Won't echo like the shriek of riot did 


verse 2 (1:45) 

Guitar 1 

e|-------0-----------0-----|-------0-----------0-----|-------0-----------0-----|-------0-----------0-----| 
B|---4-----4-----4-----4---|---4-----4-----4-----4---|---2-----2-----2-----2---|---2-----2-----2-----2---| 
G|-6---6-----6-5---5-----5-|-6---6-----6-5---5-----5-|-3---3-----3-0---0-----0-|-3---3-----3-0---0-----0-| 3x 
D|-------------------------|-------------------------|-------------------------|-------------------------| 
A|-------------------------|-------------------------|-------------------------|-------------------------| 
D|-------------------------|-------------------------|-------------------------|-------------------------| 

Guitar 2 

e|----11----12-11-------11----12-11----|----11----12-11-------11----12-11----| 
B|-14----14-------14-13----13-------13-|-14----14-------14-13----13-------13-| 
G|-------------------------------------|-------------------------------------| 
D|-------------------------------------|-------------------------------------| 
A|-------------------------------------|-------------------------------------| 
D|-------------------------------------|-------------------------------------| 

e|----------12----------------12-------|----------12----------------12-------| 
B|----14-------14-------14-------14----|----14-------14-------14-------14----| 
G|-15----15-------15-12----12-------12-|-15----15-------15-12----12-------12-| 3x 
D|-------------------------------------|-------------------------------------| 
A|-------------------------------------|-------------------------------------| 
D|-------------------------------------|-------------------------------------| 

Guitar 3 (2:02) 

e|-------6-------6---6---6-|-------6-------6---6---6-|-------------------------|-------------------------| 
B|-9-9-9---9-8-8---8---8---|-9-9-9---9-8-8---8---8---|-6-6-6-6-6-6-9-9-9-9-9-9-|-6-6-6-6-6-6-9-9-9-9-9-9-| 
G|-------------------------|-------------------------|-4-4-4-4-4-4-7-7-7-7-7-7-|-4-4-4-4-4-4-7-7-7-7-7-7-| 
D|-------------------------|-------------------------|-------------------------|-------------------------| 
A|-------------------------|-------------------------|-------------------------|-------------------------| 
D|-------------------------|-------------------------|-------------------------|-------------------------| 

Sever the anchor you drag or be frozen at the stake 
Choke down all the prey in your path before you become the prey 
No one likes a company man, nothing but a snake 
Nothing but a snake 


Pre-Chorus (2:10) 

Guitars 1 + 2 

e|-----------------|---------------------| 
B|-----------------|---------------------| 
G|-6---8-----------|-6---8---------------| 
D|-----------------|---------------------| 
A|-5---4---5---5---|-5---4---5-5-5-5-5-5-| 
D|---------3---6---|---------3h6-6-6-6-6-| 
PM                               |-----| 

e|-----------------|---------------------| 
B|-----------------|---------------------| 
G|-6---8-----------|-6---8---------------| 2x 
D|-----------------|---------------------| 
A|-5---4---5---5---|-5---4---5-5-5-5-5-5-| 
D|---------3---6---|---------3-3-3-3-3-3-| 
PM                             |-------| 

Guitar 1 

e|-------------|----------------| 
B|-------------|---------5------| 
G|-------------|-6-5---3---3--7-| 
D|-------------|-----5----------| 
A|-5-----------|--------------5-| 
D|-3-----------|----------------| 

Guitar 2 

e|-------------|---------3------| 
B|-------------|-5-4---2---2----| 
G|-------------|-----3--------7-| 
D|-------------|----------------| 
A|-5-----------|--------------5-| 
D|-3-----------|----------------| 

Look at my war, it's the prettiest thing alive 
I traded it for sanity, now all you see is mine 
Open the throttle, feel the thunder in the sails 
Pick up the scent of fear and follow the trail 


Chorus (2:28) 

Guitar 1 

e|---------------|-----------------|---------------|-----------------| 
B|---------------|-----------------|---------------|-----------------| 
G|---------------|---------------7-|---------------|---------------7-| 
D|---------------|-----------------|---------------|-----------------| 
A|---------------|---------------5-|---------------|---------------5-| 
D|---0-0-0-0-0-0-|-0-0-0-0-0-0-0---|---0-0-0-0-0-0-|-0-0-0-0-0-0-0---| 

e|---------------|-----------------|---------------|      |----------------| 
B|---------------|-----------------|---------------|      |---------5------| 
G|---------------|---------------7-|---------------|      |-6-5---3---3--7-| 2x 
D|---------------|-----------------|---------------|      |-----5----------| 
A|---------------|---------------5-|---------------|      |--------------5-| 
D|---0-0-0-0-0-0-|-0-0-0-0-0-0-0---|---0-0-0-0-0-0-|      |----------------| 
                                                            1st Ending 
e|-----------------------------| 
B|-----------------------------| 
G|-6-5---3-3-------------------| 
D|-----5-----5-----------------| 
A|-------------1-1-1-----5-1---| 
D|-------------1-1---3-6-----0-| 
PM             |-| 
   2nd Ending 

Guitar 2 

e|---------------|-----------------|---------------|------------------| 
B|---------------|-----------------|---------------|---------------10-| 
G|---------------|---------------7-|---------------|------------------| 
D|---------------|-----------------|---------------|---------------7--| 
A|---------------|---------------5-|---------------|------------------| 
D|---0-0-0-0-0-0-|-0-0-0-0-0-0-0---|---0-0-0-0-0-0-|-0-0-0-0-0-0-0----| 

e|---------------|-------------------|---------------|      |---------3------| 
B|---7-7-7-7-7-7-|-7h8p7-5-7-7-8-----|---------------|      |-5-4---2---2----| 
G|---------------|-------------------|---------------|      |-----3--------7-| 2x 
D|---4-4-4-4-4-4-|-4h5p4-2-4-4-5--4*-|---------------|      |----------------| 
A|---------------|-------------------|---------------|      |--------------5-| 
D|---------------|-------------------|---0-0-0-0-0-0-|      |----------------| 
                                                              1st Ending 
e|-----------------------------| 
B|-5-4---2-2-------------------| 
G|-----3-----3-----------------| 
D|-----------------------------| 
A|-------------1-1-1-----------| 
D|-------------1-1-1-----------| 
PM             |---| 
   2nd Ending 

When all I am is a stone that says 
The name I had and the years that I had been 
The quiet depths and the measured steps 
Won't echo like the shriek of riot did 


verse 3 (2:52) 

Guitar 1 

e|-----------------|-----------------|-----------------| 
B|-----------------|-----------------|-----------------| 
G|-----------------|-----------------|-----------------| 3x 
D|-----------------|-----------------|-----------------| 
A|-1-0-0-0-1-0-1-0-|-0-0-1-0-1-0-0-0-|-1-0-1-----5-1---| 
D|-3-0-0-0-3-0-3-0-|-0-0-3-0-3-0-0-0-|-3-0---3-6-----0-| 
PM   |---|   -   |-----|   -   |---|     - 

e|-----------------|-----------------|-----------------|-------------| 
B|-----------------|-----------------|-----------------|-------------| 
G|-----------------|-----------------|-----------------|-------------| 
D|-----------------|-----------------|-----------------|-----6-------| 
A|-1-0-0-0-1-0-1-0-|-0-0-1-0-1-0-0-0-|-1-0-1-----5-1---|-------5-8-4-| 
D|-3-0-0-0-3-0-3-0-|-0-0-3-0-3-0-0-0-|-3-0---3-6-----0-|-6-3---------| 
PM   |---|   -   |-----|   -   |---|     - 

    (3:09) 
e|-----------------|-----------------|-----------------| 
B|-----------------|-----------------|-----------------| 
G|-----------------|-----------------|-----------------| 
D|-----------------|-----------------|-----------------| 
A|-5-5-5-5-5-5-5-5-|-5-5-5-5-5-5-5-5-|-5-5-5-5-5-5-5-5-| 
D|-6-6-6-6-6-6-6-6-|-6-6-6-6-3-3-3-3-|-3-3-3-3-3-3-3-3-| 
PM   |---|   -   |-----|   -   |---|     -   |---|   - 
                                                               (3:25) 
e|-----------------|-----------------|-----------------|      |-------------|-------------|---------------| 
B|-----------------|-----------------|-----------------|      |-------------|-------------|---------------| 
G|-----------------|-----------------|-----------------| 2x   |-------------|-------------|---------------| 
D|-----------------|-----------------|---------6-------|      |-----6-------|-----6-------|-----6---------| 
A|-5-5-5-5-5-5-5-5-|-5-5-5-5-5-5-5-5-|-5-5-------5-8-4-|      |-------5-8-4-|-------5-8-4-|-------5-8-4~--| 
D|-6-6-6-6-6-6-6-6-|-6-6-6-6-3-3-3-3-|-3-3-6-3---------|      |-6-3---------|-6-3---------|-6-3-----------| 
PM   |---|   -   |-----|   -   |---|     -                                     |------ Slow down ------|    

Guitar 2 

e|-----------------|-----------------|-----------------| 
B|-----------------|-----------------|-----------3-----| 
G|-----------------|-----------------|-----3---1---3---| 
D|-----------------|-----------------|-------3-------3-| 
A|-1-0-0-0-1-0-1-0-|-0-0-1-0-1-0-0-0-|-1-0-------------| 
D|-3-0-0-0-3-0-3-0-|-0-0-3-0-3-0-0-0-|-3-0-------------| 
PM   |---|   -   |-----|   -   |---|     - 

e|-----------------|-----------------|-----------------| 
B|-----------------|-----------------|-----------------| 
G|-----------------|-----------------|-----------------| 
D|-----------------|-----------------|-----------------| 
A|-1-0-0-0-1-0-1-0-|-0-0-1-0-1-0-0-0-|-1-0-1-----5-1---| 
D|-3-0-0-0-3-0-3-0-|-0-0-3-0-3-0-0-0-|-3-0---3-6-----0-| 
PM   |---|   -   |-----|   -   |---|     - 

e|-----------------|-----------------|-----------------| 
B|-----------------|-----------------|-----------3-----| 
G|-----------------|-----------------|-----3---1---3---| 
D|-----------------|-----------------|-------3-------3-| 
A|-1-0-0-0-1-0-1-0-|-0-0-1-0-1-0-0-0-|-1-0-------------| 
D|-3-0-0-0-3-0-3-0-|-0-0-3-0-3-0-0-0-|-3-0-------------| 
PM   |---|   -   |-----|   -   |---|     - 

e|-----------------|-----------------|-----------------|-------------| 
B|-----------------|-----------------|-----------------|-------------| 
G|-----------------|-----------------|-----------------|-----6-------| 
D|-----------------|-----------------|-----------------|-------------| 
A|-1-0-0-0-1-0-1-0-|-0-0-1-0-1-0-0-0-|-1-0-1-----5-1---|-------5-8-4-| 
D|-3-0-0-0-3-0-3-0-|-0-0-3-0-3-0-0-0-|-3-0---3-6-----0-|-6-3---------| 
PM   |---|   -   |-----|   -   |---|     - 

    (3:09) 
e|-----------------|-----------------|-----------------| 
B|-----------------|-----------------|-----------------| 
G|-----------------|-----------------|-----------------| 
D|-----------------|-----------------|-----------------| 
A|-5-5-5-5-5-5-5-5-|-5-5-5-5-5-5-5-5-|-5-5-5-5-5-5-5-5-| 
D|-6-6-6-6-6-6-6-6-|-6-6-6-6-3-3-3-3-|-3-3-3-3-3-3-3-3-| 
PM   |---|   -   |-----|   -   |---|     -   |---|   - 

e|-----------------|-----------------|-----------------| 
B|-----------------|-----------------|-----------------| 
G|-----------------|-----------------|---------6-------| 
D|-----------------|-----------------|-----------------| 
A|-5-5-5-5-5-5-5-5-|-5-5-5-5-5-5-5-5-|-5-5-------5-8-4-| 
D|-6-6-6-6-6-6-6-6-|-6-6-6-6-3-3-3-3-|-3-3-6-0---------| 
PM   |---|   -   |-----|   -   |---|     - 

e|-----------------|-----------------|-----------------| 
B|-----------------|-----------------|-----------------| 
G|-----------------|-----------------|-----------------| 
D|-----------------|-----------------|-----------------| 
A|-5-5-5-5-5-5-5-5-|-5-5-5-5-5-5-5-5-|-5-5-5-5-5-5-5-5-| 
D|-6-6-6-6-6-6-6-6-|-6-6-6-6-3-3-3-3-|-3-3-3-3-3-3-3-3-| 
PM   |---|   -   |-----|   -   |---|     -   |---|   - 
                                                       (3:25) 
e|-----------------|-----------------|-----------------|-------------|-------------|---------------| 
B|-----------------|-----------------|-----------------|-------------|-------------|---------------| 
G|-----------------|-----------------|---------6-------|-----6-------|-----6-------|-----6---------| 
D|-----------------|-----------------|-----------------|-------------|-------------|---------------| 
A|-5-5-5-5-5-5-5-5-|-5-5-5-5-5-5-5-5-|-5-5-------5-8-4-|-------5-8-4-|-------5-8-4-|-------5-8-4~--| 
D|-6-6-6-6-6-6-6-6-|-6-6-6-6-3-3-3-3-|-3-3-6-0---------|-6-3---------|-6-3---------|-6-3-----------| 
PM   |---|   -   |-----|   -   |---|     -                             |------ Slow down ------| 

I can't move the dredge without heat 
Still-water of a puddle and the ocean never meet 
I've wandered off a path into a storm 
A trance into a fury, a mantra for a sword 

Doomed until I recall how to fire up an engine that has stalled 
I would trade what I have lost for the things that I have left 
Some clarity just to see darkness best? 
My flower in your barrel hasn't stopped the slaughter yet 


Outro (3:32) 

Guitar 1 

e|----------------|-----------------|---------------|-----------------|---------------|-----------------| 
B|----------------|-----------------|---------------|-----------------|---------------|-----------------| 
G|-7--------------|---------------7-|---------------|---------------7-|---------------|---------------7-| 
D|----------------|-----------------|---------------|-----------------|---------------|-----------------| 
A|-5--------------|---------------5-|---------------|---------------5-|---------------|---------------5-| 
D|----0-0-0-0-0-0-|-0-0-0-0-0-0-0---|---0-0-0-0-0-0-|-0-0-0-0-0-0-0---|---0-0-0-0-0-0-|-0-0-0-0-0-0-0---| 

e|---------------|------------------| 
B|---------------|------------------| 
G|---------------|-----6------------| 2x 
D|---------------|------------------| 
A|---------------|-------5-8-4~-----| 
D|---0-0-0-0-0-0-|-6-3--------------| 

Guitar 2 

e|---------|---------|---------|-------------|---------|---------|---------|------------------| 
B|---------|---------|---------|-------------|---------|---------|---------|------------------| 
G|-7-------|---------|---------|--2--7--9--7-|---------|---------|---------|-----6------------| 
D|---------|---------|---------|-------------|---------|---------|---------|------------------| 
A|-5-------|---------|---------|--0--5--7--5-|---------|---------|---------|-------5-8-4~-----| 
D|---------|---------|---------|-------------|---------|---------|---------|-6-3--------------| 

e|----------------|-----------------|---------------|-----------------|---------------|-----------------| 
B|----------------|-----------------|---------------|-----------------|---------------|-----------------| 
G|-7--------------|---------------7-|---------------|---------------7-|---------------|---------------7-| 
D|----------------|-----------------|---------------|-----------------|---------------|-----------------| 
A|-5--------------|---------------5-|---------------|---------------5-|---------------|---------------5-| 
D|----0-0-0-0-0-0-|-0-0-0-0-0-0-0---|---0-0-0-0-0-0-|-0-0-0-0-0-0-0---|---0-0-0-0-0-0-|-0-0-0-0-0-0-0---| 

e|---------------|------------------| 
B|---------------|------------------| 
G|---------------|-----6------------| 
D|---------------|------------------| 
A|---------------|-------5-8-4~-----| 
D|---0-0-0-0-0-0-|-6-3--------------| 

Both Guitars (4:08) 

e|---------------|----------------|--------------|----------------|--------------|----------------| 
B|---------------|----------------|--------------|----------------|--------------|----------------| 
G|-7-------------|--------------7-|--------------|--------------7-|--------------|--------------7-| 
D|---------------|----------------|--------------|----------------|--------------|----------------| 
A|-5--0-0-0-0--0-|-0-0-0--0-0-0-5-|---0-0-0-0--0-|-0-0-0--0-0-0-5-|---0-0-0-0--0-|-0-0-0--0-0-0-5-| 
D|----0-0-0-0--0-|-0-0-0--0-0-0---|---0-0-0-0--0-|-0-0-0--0-0-0---|---0-0-0-0--0-|-0-0-0--0-0-0---| 

e|--------------|------------------| 
B|--------------|------------------| 
G|--------------|-----6------------| 
D|--------------|------------------| 
A|---0-0-0-0--0-|-------5-8-4~-----| 
D|---0-0-0-0--0-|-6-3--------------| 

e|----------------|-----------------|---------------|-----------------|---------------|-----------------| 
B|----------------|-----------------|---------------|-----------------|---------------|-----------------| 
G|-7--------------|---------------7-|---------------|---2---7---9---7-|---------------|---------------7-| 
D|----------------|-----------------|---------------|---x---x---x-----|---------------|-----------------| 
A|-5--------------|---------------5-|---------------|---0---5---7---5-|---------------|---------------5-| 
D|----0-0-0-0-0-0-|-0-0-0-0-0-0-0---|---0-0-0-0-0-0-|-0-0-0-0-0-0-0---|---0-0-0-0-0-0-|-0-0-0-0-0-0-0---| 

e|---------------|------------------| 
B|---------------|------------------| 
G|---------------|-----6------------| 
D|---------------|------------------| 
A|---------------|-------5-8-4~-----| 
D|---0-0-0-0-0-0-|-6-3--------------| 

e|---------------|----------------|--------------|----------------|--------------|----------------| 
B|---------------|----------------|--------------|----------------|--------------|----------------| 
G|-7-------------|--------------7-|--------------|--------------7-|--------------|--------------7-| 
D|---------------|----------------|--------------|----------------|--------------|----------------| 
A|-5--0-0-0-0--0-|-0-0-0--0-0-0-5-|---0-0-0-0--0-|-0-0-0--0-0-0-5-|---0-0-0-0--0-|-0-0-0--0-0-0-5-| 
D|----0-0-0-0--0-|-0-0-0--0-0-0---|---0-0-0-0--0-|-0-0-0--0-0-0---|---0-0-0-0--0-|-0-0-0--0-0-0---| 
PM    |-----|  |-------|  |---|       |-----|  |-------|  |---|       |-----|  |-------|  |---| 

e|--------------|------------------| 
B|--------------|------------------| 
G|--------------|-----6------------| 
D|--------------|------------------| 
A|---0-0-0-0--0-|-------5-8-4~-----| 
D|---0-0-0-0--0-|-6-3--------------|  
  

top 5 | every time i die
top rock'n roll
Outras músicas do artista letras do(a) Every Time I Die
Top cifras »Top artistas »
Petaxxon Comunicação Online
Cifras.com.br - Melhor e mais completo site de cifras e tablaturas do Brasil
Mais de 1 milhão de acordes de músicas cadastradas desde 2003
As informações contidas no nosso site são colaborações de seus usuários e podem conter erros, sendo assim, não nos responsabilizamos sobre nenhuma destas.
close
menos
mais
close
Cor dos acordes:

Cor da letra:

 

save
close
close
 
redimensionar