Cifras e Tablaturas
Eyehategod

Eyehategod

Jackass In The Will Of God

Cifras Cancelar Versão de Impressão
cifras

Eyehategod - Jackass In The Will Of God

fixar na tela  
Exibindo: vídeo-aula ver clipes redimensionar

Tom:

  Listen to the recording for timing and for the bends as well, Plus all the extra slides and vibratos Jimmy 
does. Please rate and comment and corrections. 

Main Riff 
D|----------------------------------------------------| 
A|----------------------------------------------------| 
F|----------------------------------------------------|x2 
C|----------------------------------------------------| 
G|----------------------------------------------------| 
D|-3-5-3-0-3----7-6-5~~----3-5-3-0-3----5-4-3~~-------|  

(Bend note each time you're attacking the string) 

D|----------------------------------------------------------------------------| 
A|----------------------------------------------------------------------------| 
F|----------------------------------------------------------------------------| 
C|----------------------------------------------------------------------------| 
G|----------------------------------------------------------------------------| 
D|-2h4-44-4-4-44-444----2h4-44-4-4-44-444----2h4-44-4-4-44-444---2h4-4-4-2-0--|  

(Same deal with this riff, Just bend the top string) 

D|----------------------------------------------------------------------------| 
A|----------------------------------------------------------------------------| 
F|----------------------------------------------------------------------------| 
C|-4/6--66-6-6-66-666--4/6--66-6-6-66-666--4/6--66-6-6-66-666---4/6-6-6-4-2---| 
G|-4/6--66-6-6-66-666--4/6--66-6-6-66-666--4/6--66-6-6-66-666---4/6-6-6-4-2---| 
D|-2/4--44-4-4-44-444--2/4--44-4-4-44-444--2/4--44-4-4-44-444---2/4-4-4-2-0---|  

D|----------------------------------------------------| 
A|----------------------------------------------------| 
F|----------------------------------------------------|x2 
C|----------------------------------------------------| 
G|----------------------------------------------------| 
D|-3-5-3-0-3----7-6-5~~----3-5-3-0-3----5-4-3~~-------|  

D|----------------------------------------------------------------------------| 
A|----------------------------------------------------------------------------| 
F|----------------------------------------------------------------------------| 
C|----------------------------------------------------------------------------| 
G|----------------------------------------------------------------------------| 
D|-2h4-44-4-4-44-444----2h4-44-4-4-44-444----2h4-44-4-4-44-444---2h4-4-4-2-0--|  

D|----------------------------------------------------------------------------| 
A|----------------------------------------------------------------------------| 
F|----------------------------------------------------------------------------| 
C|-4/6--66-6-6-66-666--4/6--66-6-6-66-666--4/6--66-6-6-66-666---4/6-6-6-4-2---| 
G|-4/6--66-6-6-66-666--4/6--66-6-6-66-666--4/6--66-6-6-66-666---4/6-6-6-4-2---| 
D|-2/4--44-4-4-44-444--2/4--44-4-4-44-444--2/4--44-4-4-44-444---2/4-4-4-2-0---|  

D|---------------------------------------------------------| 
A|---------------------------------------------------------| 
F|---------------------------------------------------------|x8 
C|---------------------------------------------------------| 
G|--7---6---5----------------------------------------------| 
D|--------------7-------6~~----------5~~-------------------|  

D|---------------------------------------------------------| 
A|---------------------------------------------------------| 
F|---------------------------------------------------------|x4 
C|---------------------------------------------------------| 
G|--5---4---3----------------------------------------------| 
D|--------------5-------4~~-----------3~~------------------|  

D|---------------------------------------------------------------------------------------------| 
A|---------------------------------------------------------------------------------------------| 
F|---------------------------------------------------------------------------------------------| 
C|--7-------------------------------------------------------------------------------5---5-5----| 
G|--7-------5-------7br------5------------5----7----7/8\7-----5-----7-----7/8\7-----5---5-5----| 
D|--5----------------------------5~~------------------------------------------------3---3-3----|  

D|---------------------------------------------------------| 
A|---------------------------------------------------------| 
F|---------------------------------------------------------|x2 
C|------7----2---------7-10-10-10-10-10-10-10-10-----------| 
G|------7----2---------7-10-10-10-10-10-10-10-10-----------| 
D|--0---5----0----0----5/8--8--8--8--8--8--8--8------------|  

D|-------------------------------------------------------------------| 
A|-------------------------------------------------------------------| 
F|-------------------------------------------------------------------| 
C|--7----------------------------------------------------------------| 
G|--7----5------6b-----6b----6b-----6-----5~~--5~~-------------------| 
D|--5-------------------------------------------------0----5b---0----|  

D|--------------------------------------------------------| 
A|--------------------------------------------------------| 
F|--------------------------------------------------------| 
C|-9-99-9-99-8-88-8-88-7-77-7-77----5----2----------------| 
G|-9-99-9-99-8-88-8-88-7-77-7-77----5----2----------------| 
D|-7-77-7-77-6-66-6-66-5-55-5-55-0--3----0----------------|  


************************************ 

| /   slide up 
| \   slide down 
| h   hammer-on 
| p   pull-off 
| ~   vibrato 
| b   Bend 
| br  Bend release 


************************************ 
  

top 5 | eyehategod
top rock'n roll
Outras músicas do artista letras do(a) Eyehategod
Top cifras »Top artistas »
Petaxxon Comunicação Online
Cifras.com.br - Melhor e mais completo site de cifras e tablaturas do Brasil
Mais de 1 milhão de acordes de músicas cadastradas desde 2003
As informações contidas no nosso site são colaborações de seus usuários e podem conter erros, sendo assim, não nos responsabilizamos sobre nenhuma destas.
close
menos
mais
close
Cor dos acordes:

Cor da letra:

 

save
close
close
 
redimensionar