Cifras e Tablaturas
Cifras Cancelar Versão de Impressão
cifras

Faith no More - Epic

fixar na tela  
Exibindo: vídeo-aula ver clipes redimensionar

Tom:

Em

ver outros tons
  
Intro: E5 B5 C5 D5 E5 

e|-----------------------| 
B|-----------------------| 
G|-----------------------| 
D|-----------------------| 
A|-----------------------| 
E|----0--0--0--3--3--2-3-| 

Pre-Chorus: 
e|---------------------------------------------8--9--10---11-| 
B|-----------7-8-------7--8-----------7-8-----7--8--9---10---| 
G|-----------6-7-------6--7-----------6-7---6---7--8---9-----| 
D|-----------5-6-------5--6-----------5-6--------------------| 
A|-----------6-7-------6--7-----------6-7--------------------| 
E|-3-3-3p0-------0-0-0------3-3-3p0-------0------------------| 

Chorus: 

e|-------------------------------------------------------| 
B|-------------------------------------------------------| 
G|-------------------------------------------------------| 
D|----4--2--4--5--4--2--9-------9-------9----------------| 
A|-2--2--3--5--7--5--3--7-------7-------7----------------| 
E|-0----------------------0-0-0---0-0-0---0-0-0--3-3-2h3-| 

Pre-Chorus: 
e|---------------------------------------------8--9--10---11-| 
B|-----------7-8-------7--8-----------7-8-----7--8--9---10---| 
G|-----------6-7-------6--7-----------6-7---6---7--8---9-----| 
D|-----------5-6-------5--6-----------5-6--------------------| 
A|-----------6-7-------6--7-----------6-7--------------------| 
E|-3-3-3p0-------0-0-0------3-3-3p0-------0------------------| 

Chorus 2: 

e|---------------------| 
B|---------------------| 
G|---------------------| 
D|----4--2--4--5--4--2-| 
A|-2--2--3--5--7--5--3-| 
E|-0-------------------| 


e|----------------------------------| 
B|----------------------------------| 
G|----------------------------------| 
D|-9-------9-------9----------------| 
A|-7-------7-------7----------------| 
E|---0-0-0---0-0-0---0-0-0--3-3-2h3-| (3x) 

e|------------------------------------------| 
B|------------------------------------------| 
G|------------------------------------------| 
D|-9-----------9-----------9----------------| 
A|-7-----------7-----------7----------------| 
E|---0-0-0-0-0---0-0-0-0-0---0-0-0--3-3-2h3-| 

Solo: 

e|----0-------------------------------------------------------| 
B|---------------0--------------------------10--13---15---12--| 
G|----------0---------------5---7---9---12--------------------| 
D|-------------------5-4--------------------7---10---12---9---| 
A|-2------------------------3---5---7---10--------------------| 
E|-0----------------------------------------------------------| 

e|-14h15-15-14-14-14\12-12-12-12-14h15-14\10-10---14\10-10-12\8--| 
B|---------------------------------------------------------------| 
G|---------------------------------------------------------------| 
D|---------------------------------------------------------------| 
A|---------------------------------------------------------------| 
E|---------------------------------------------------------------| 

e|-8----------------12-8-12-14-10-10-8-7h8p7-----14-10-14-15-| 
B|-----8-7h8p7-------------------------------8-7-------------| 
G|-------------7---------------------------------------------| 
D|---------------10------------------------------------------| 
A|-----------------------------------------------------------| 
E|-----------------------------------------------------------| 

e|-12-12--------12----------------------------------------------| 
B|-----------------15p12----12h15p12----12h15p12----12h15p12----| 
G|--------14b16----------14----------14----------14----------14-| 
D|--------------------------------------------------------------| 
A|--------------------------------------------------------------| 
E|--------------------------------------------------------------| 

e|--------------------------------| 
B|-12h15p12----12h15p12----15b17--| 
G|----------14----------14--------| 
D|--------------------------------| 
A|--------------------------------| 
E|--------------------------------| 

End Chorus: 

e|----------------------------------| 
B|----------------------------------| 
G|----------------------------------| 
D|-9-------9-------9----------------| 
A|-7-------7-------7----------------| 
E|---0-0-0---0-0-0---0-0-0--3-3-2h3-|(3x) 

e|------------------------------------------| 
B|------------------------------------------| 
G|------------------------------------------| 
D|-9-----------9-----------9----------------| 
A|-7-----------7-----------7----------------| 
E|---0-0-0-0-0---0-0-0-0-0---0-0-0--3-3-2h3-| 

End Solo: 

e|------------------------------------------| 
B|-12---12\12\10/12-------------------------| 
G|----------------------12\11/12----9\7/9---| 
D|-9----10\9\-7/-9--------------------------| 
A|----------------------10\9/-10----7\5/7---| 
E|------------------------------------------| 

Pian: 

e|-----------------------------------------------------------| 
B|-----------0--3--------------0--------------3-----1p0-1----| 
G|----0---------------0-----2-----3--------0-----------------| 
D|--0-----------4--------------------2-----------------------| 
A|--------------------------------3-----3-----3--3------3--3-| 
E|--0------0----0--0--0--0--0--0-----------------------------| 

e|----------------|----------------0----------------------12ha--| 
B|----------------|----0----0--3-------------12ha-12ha----------| 
G|-4p2-4--2-----0-|-2-------------------12ha--------------------| 
D|----------------|------------------------------------5ha------| 
A|-----3-----3----|---------------------------------------------| 
E|----------------|---------------------------------------------| 

  

cifra enviadacorrigido por:Acelot
enviado poranônimo
Tom: E ver outros instrumentos
Epic Tom DmDm(um tom abaixo)
Epic Tom D#mD#m(meio tom abaixo)
Epic Tom EmEm(tom original)
Epic Tom FmFm(meio tom acima)
Epic Tom F#mF#m(um tom acima)
Subir 1 tomSubir 1/2Descer 1 tomDescer 1/2
top 5 | faith no more
top rock alternativo
Outras músicas do artista letras do(a) Faith no More
1.
Easy
Top cifras »Top artistas »
Petaxxon Comunicação Online
Cifras.com.br - Melhor e mais completo site de cifras e tablaturas do Brasil
Mais de 1 milhão de acordes de músicas cadastradas desde 2003
As informações contidas no nosso site são colaborações de seus usuários e podem conter erros, sendo assim, não nos responsabilizamos sobre nenhuma destas.
close
menos
mais
close
Cor dos acordes:

Cor da letra:

 

save
close
close
 
redimensionar