Cifras e Tablaturas
Fatso Jetson

Fatso Jetson

Stranglers Blues

Cifras Cancelar Versão de Impressão
cifras

Fatso Jetson - Stranglers Blues

fixar na tela  
Exibindo: vídeo-aula ver clipes redimensionar

Tom:

  

   intro                                 
e|:---------|------3-----------------------3-3-3-3-3------3-3-| 
B|:-0-0--0--|-0-0--0---0-0--0-0--0--0-0-0--5-5-5-5-5--5-5-5-5-| 
G|:-0-3b-0--|-0-3b-0---0-3b-0-3b-0--0h3p0--5-5-5-5-5--5-5-5-5-| 
D|:-0-0--0--|-0-0--0---0-0--0-0--0--0-0-0--5-5-5-5-5--5-5-5-5-| 
A|:---------|--------------------------------3-3------3-3-----| 
E|:---------|-------------------------------------------------| 

e|:---------|----------------------3-------------------| 
B|:-0-0--0--|-0-0-0-----3-3--2--0--0--0-0-3-3--0-0-3-3-| 
G|:-0-3b-0--|-0h3p0--3--3-3--2--0--0--0-0-0-0--0-0-0-0-| 
D|:-0-0--0--|-0-0-0--3--3-3--2--0--0--0-0-0-0--0-0-0-0-| 
A|:---------|--------1--1-1--0--0--0--0-0-0-0--0-0-0-0-| 
E|:---------|-------------------3----------------------| 


e|:---------------------| 
B|:-----10/12-12--------| 
G|:-7/9-----------------| 
D|:---------------12-12-| 
A|:---------------------| 
E|:---------------------| 


   verse  
    i've waited for this moment... 
e|:------------------|-----------------------------------------------| 
B|:-0---3-3--0-0-3-3-|-0-0-3-3--0-0-3-3--5------5-5-----5----3--2----| 
G|:-0---0-0--0-0-0-0-|-0-0-0-0--0-0-0-0--5--5-5-5-5-5-5-5--3-3--2--0-| 
D|:-0---0-0--0-0-0-0-|-0-0-0-0--0-0-0-0--5--5-5-5-5-5-5-5--3-3--2--0-| 
A|:-0---0-0--0-0-0-0-|-0-0-0-0--0-0-0-0--3--3-3-3-3-3-3-3--1-1--0--0-| 
E|:------------------|---------------------------------------------3-| 

         living without you.... 
e|:-----------------|-------------------------------------------------| 
B|:----3-3--0-0-3-3-|-0-0-3-3--0-0-3-3--5------5-5-----5----3----2----| 
G|:----0-0--0-0-0-0-|-0-0-0-0--0-0-0-0--5--5-5-5-5-5-5-5--3-3-3--2--0-| 
D|:----0-0--0-0-0-0-|-0-0-0-0--0-0-0-0--5--5-5-5-5-5-5-5--3-3-3--2--0-| 
A|:----0-0--0-0-0-0-|-0-0-0-0--0-0-0-0--3--3-3-3-3-3-3-3--1-1-1--0--0-| 
E|:-----------------|-----------------------------------------------3-| 


e|:-------| 
B|:-0--0--| 
G|:-0--0--| 
D|:-0--0--| 
A|:-0--0--| 
E|:-------| 

   in my life without your love 
e|:------------|-------------------------------------------------------------| 
B|:------------|-------------------------------------------------------------| 
G|:-5--5-5-5-5-|-4-----------3--3--5-5--4---------5--5-5-5-------------------| 
D|:-5--5-5-5-5-|-5--5-5-5-5--3--3--5-5--5--5-5-5--5--5-5-5--8--8--6/8-8-7-5--| 
A|:-3--3-3-3-3-|-5--5-5-5-5--1--1--3-3--5--5-5-5--3--3-3-3--8--8--6/8-8-7-5--| 
E|:------------|-3--3-3-3-3-------------3--3-3-3------------6--6--4/6-6-5-3--| 

e|:-----------|-------------------------------------------------------------| 
B|:-0--0-0--0-|-0-0--0--0-0--0-0---0--0-0-0-0-------------------------------| 
G|:-0--0-2b-0-|-0-2b-0--0-2b-0-2b--0--0-3-0-3--5-5-5--5-5-5-5--4------------| 
D|:-----------|--------------------------------5-5-5--5-5-5-5--5--5-5-5-5-5-| 
A|:-----------|--------------------------------3-3-3--3-3-3-3--5--5-5-5-5-5-| 
E|:-----------|------------------------------------------------3--3-3-3-3-3-| 

e|:----------------------| 
B|:----------------------| 
G|:-9-7-9-7--9bp7---7b---| 
D|:--------------9-----9-| 
A|:----------------------| 
E|:----------------------| 

e|:-------------| 
B|:-3---------0-| 
G|:-3-3-3--2--0-| 
D|:-3-3-3--2--0-| 
A|:-1-1-1--0--0-| 
E|:-----------3-| 

e|:----------------------|----------------| 
B|:-12--12--15--12-12-12-|----12----------| 
G|:-12--12--14--12-12-12-|-14----14p12----| 
D|:----------------------|-------------12-| 
A|:----------------------|----------------| 
E|:----------------------|----------------| 

   verse 
    if she wore... 
e|:------------------|-----------------------------------------------| 
B|:-0---3-3--0-0-3-3-|-0-0-3-3--0-0-3-3--5------5-5-----5----3--2----| 
G|:-0---0-0--0-0-0-0-|-0-0-0-0--0-0-0-0--5--5-5-5-5-5-5-5--3-3--2--0-| 
D|:-0---0-0--0-0-0-0-|-0-0-0-0--0-0-0-0--5--5-5-5-5-5-5-5--3-3--2--0-| 
A|:-0---0-0--0-0-0-0-|-0-0-0-0--0-0-0-0--3--3-3-3-3-3-3-3--1-1--0--0-| 
E|:------------------|---------------------------------------------3-| 


e|:----------------------| 
B|:----8---8-----8-8-8-8-| 
G|:-/9---9---9-9-9-9-9-9-| 
D|:----------0---0-------| 
A|:----------------------| 
E|:----------------------| 

e|:-----------------|-------------------------------------------------| 
B|:----3-3--0-0-3-3-|-0-0-3-3--0-0-3-3--5------5-5-----5----3----2----| 
G|:----0-0--0-0-0-0-|-0-0-0-0--0-0-0-0--5--5-5-5-5-5-5-5--3-3-3--2--0-| 
D|:----0-0--0-0-0-0-|-0-0-0-0--0-0-0-0--5--5-5-5-5-5-5-5--3-3-3--2--0-| 
A|:----0-0--0-0-0-0-|-0-0-0-0--0-0-0-0--3--3-3-3-3-3-3-3--1-1-1--0--0-| 
E|:-----------------|-----------------------------------------------3-| 

   in my life without your love 
e|:------------|-------------------------------------------------------------| 
B|:------------|-------------------------------------------------------------| 
G|:-5--5-5-5-5-|-4-----------3--3--5-5--4---------5--5-5-5-------------------| 
D|:-5--5-5-5-5-|-5--5-5-5-5--3--3--5-5--5--5-5-5--5--5-5-5--8--8--6/8-8-7-5--| 
A|:-3--3-3-3-3-|-5--5-5-5-5--1--1--3-3--5--5-5-5--3--3-3-3--8--8--6/8-8-7-5--| 
E|:------------|-3--3-3-3-3-------------3--3-3-3------------6--6--4/6-6-5-3--| 

e|:-----------|-------------------------------------------------------------| 
B|:-0--0-0--0-|-0-0--0--0-0--0-0---0--0-0-0-0-------------------------------| 
G|:-0--0-2b-0-|-0-2b-0--0-2b-0-2b--0--0-3-0-3--5-5-5--5-5-5-5--4------------| 
D|:-----------|--------------------------------5-5-5--5-5-5-5--5--5-5-5-5-5-| 
A|:-----------|--------------------------------3-3-3--3-3-3-3--5--5-5-5-5-5-| 
E|:-----------|------------------------------------------------3--3-3-3-3-3-| 

e|:----------------------| 
B|:----------------------| 
G|:-9-7-9-7--9p7--0------| 
D|:---------------0------| 
A|:----------------------| 
E|:----------------------| 

e|:---------|--------| 
B|:-0-0--0--|-0-0--0-| 
G|:-0-3b-0--|-0-3bp0-| 
D|:-0-0--0--|-0-0--0-| 
A|:---------|--------| 
E|:---------|--------| 

e|:-------------| 
B|:-3---------0-| 
G|:-3-3-3--2--0-| 
D|:-3-3-3--2--0-| 
A|:-1-1-1--0--0-| 
E|:-----------3-| 

e|:-10----10--9/12-------|-------------------------| 
B|:----12----------12-12-|-------------------------| 
G|:----------------------|-12-12--12\9-12----------| 
D|:----------------------|-----------------12-12\--| 
A|:----------------------|-------------------------| 
E|:----------------------|-------------------------| 

   verse 
e|:------------------|-----------------------------------------------| 
B|:-0---3-3--0-0-3-3-|-0-0-3-3--0-0-3-3--5------5-5-----5----3--2----| 
G|:-0---0-0--0-0-0-0-|-0-0-0-0--0-0-0-0--5--5-5-5-5-5-5-5--3-3--2--0-| 
D|:-0---0-0--0-0-0-0-|-0-0-0-0--0-0-0-0--5--5-5-5-5-5-5-5--3-3--2--0-| 
A|:-0---0-0--0-0-0-0-|-0-0-0-0--0-0-0-0--3--3-3-3-3-3-3-3--1-1--0--0-| 
E|:------------------|---------------------------------------------3-| 

e|:------------------|-----------------------------------------------| 
B|:-0---3-3--0-0-3-3-|-0-0-3-3--0-0-3-3--5------5-5-----5----3--2----| 
G|:-0---0-0--0-0-0-0-|-0-0-0-0--0-0-0-0--5--5-5-5-5-5-5-5--3-3--2--0-| 
D|:-0---0-0--0-0-0-0-|-0-0-0-0--0-0-0-0--5--5-5-5-5-5-5-5--3-3--2--0-| 
A|:-0---0-0--0-0-0-0-|-0-0-0-0--0-0-0-0--3--3-3-3-3-3-3-3--1-1--0--0-| 
E|:------------------|---------------------------------------------3-| 

   live a life without your love...                              *repeat* 
e|:------------|-----------------------------------------------------------| 
B|:------------|-----------------------------------------------------------| 
G|:-5--5-5-5-5-|-4-----------3--3--5-5--4---------5--5--3--5--3---3-3-2----| 
D|:-5--5-5-5-5-|-5--5-5-5-5--3--3--5-5--5--5-5-5--5--5--3--5--3---3-3-2--5-| 
A|:-3--3-3-3-3-|-5--5-5-5-5--1--1--3-3--5--5-5-5--3--3--1--3--1---1-1-0--5-| 
E|:------------|-3--3-3-3-3-------------3--3-3-3----------------3--------3-| 



e|:-3--------3-------------------| 
B|:-0--0-0-0-0--0--3-3----0------| 
G|:-0--0-0-0-0--0--3-3-2--0------| 
D|:-0--0-0-0-0--0--3-3-2--0------| 
A|:--------------------0--0------| 
E|:-----------------------3------| 



***********************************  
| / Slide up  
| \ Slide down  
| h Hammer-on  
| p Pull-off  
| ~ Vibrato  
| + Harmonic  
| x Dead note  
| b Bend  
| bf bend full  

*********************************** 


hillo son mex 

26/10/17 
  

top 5 | fatso jetson
top rock'n roll
Outras músicas do artista letras do(a) Fatso Jetson
Top cifras »Top artistas »
Petaxxon Comunicação Online
Cifras.com.br - Melhor e mais completo site de cifras e tablaturas do Brasil
Mais de 1 milhão de acordes de músicas cadastradas desde 2003
As informações contidas no nosso site são colaborações de seus usuários e podem conter erros, sendo assim, não nos responsabilizamos sobre nenhuma destas.
close
menos
mais
close
Cor dos acordes:

Cor da letra:

 

save
close
close
 
redimensionar