Cifras e Tablaturas
Fausto Bordalo Dias

Fausto Bordalo Dias

Mariana Das Sete Saias

Cifras Cancelar Versão de Impressão
cifras

Fausto Bordalo Dias - Mariana Das Sete Saias

fixar na tela  
Exibindo: vídeo-aula ver clipes redimensionar
  
E|---------------0-----------0-------------------0---------2---|| 
B|-----------5-----5-----5-----5-------------3-----3---3-------|| 
G|---------4---4-------4---------4---------4---4-----4---2-----|| 
D|-------0-------------------------------2-------------------4-|| 
A|-2-0-------------------------------------------------2-------|| 
E|-----4-------------4-----4-------5-4-3-----------------------|| 


E|---------------0--------|---------0-------------0---------|| 
B|-5---3---2-------2------|-7---------7-----7-------7-------|| 
G|---0---0---0-------0----|---7---------7-----7-------7-----|| 
D|-------------2-------2--|-----7---------7-----7-------7---|| 
A|-3---2---0-------------0|-5-----5---------5-----5-------5-|| 
E|------------------------|---------------------------------|| 


E|-------0-----0-----0-----0---------------0---------------0-------|| 
B|-5-------5-----5-----5-----5-----3-----------3---2---------2-----|| 
G|---5-------5-----------5-------5-----2---------2---0---------0---|| 
D|-----5-----------------------5-----4-------4---------2---------2-|| 
A|-0---------------0---------------2-----2---------0-----0---------|| 
E|-----------------------------------------------------------------|| 


   1ªvez                                        2ªvez 
   ________________________________________ ________ 

E|-------0-----------------------0---------|-------2---------|| 
B|-0-------0-----0-5---3---2-------2-------|-3-----------3---|| 
G|---2---------2-----0---0---0-------0-----|---2-------------|| 
D|-----0-----0-----------------2-------2---|-----4-----4-----|| 
A|-2---------------3---2---0-------------0-|-2-------2-----2-|| 
E|-----------------------------------------|-----------------|| 


E|-3-3-3-3-3\2-2-0-------0------3-3-3-3-3\2-5-------5-------|| 
B|-1-1-1-1-1\1-1-2---2------2---1-1-1-1-1\1-2-2---------2---|| 
G|-2-2-2-2-2\2-2-0-----0------0-2-2-2-2-2\2-2---2-----2-----|| 
D|-----------------2------2---------------------------------|| 
A|-0-----0-------0--------------0-----0-----0-----0-------0-|| 
E|----------------------------------------------------------|| 


E|-------5---------------7---------------7-------------0-----------|| 
B|-6-------6---6---8-------8---8---7-------7-----7-0-------0-------|| 
G|---5-----------5---7-----------7---8---------8-----1-------1-----|| 
D|-------------------------------------------------------------2---|| 
A|-5---5-----5-----7---7-----7-------------------------------------|| 
E|---------------------------------7---7-----7-----0-----0-------0-|| 


E|-------4-------------3---0-------------1-------1-----3-----------|| 
B|-5-------5-----5-3-----------1---2-------2---2---3-------3-----3-|| 
G|---4---------4-----0---0---0-------3---------------4-------4-----|| 
D|-----------------2-----------------------------------------------|| 
A|-4---4-----4-------------3-----3-1---1-----1---------------------|| 
E|-------------------------------------------------3-----3-----3---|| 


   (ao início e segue) 

                      | 
                      |>--------------B|-------------- 

          (folhe)-tim  | Bm  Em7 A D Gm D D7 Em7 A  
E|-------0---------0-|------------------------------|------|| 
B|-3-------3-------2-|------------------------------|------|| 
G|---0-------0---0---|------------------------------|------|| 
D|-0---0-------0-----|------------------------------|------|| 
A|-----------------0-|------------------------------|------|| 
E|-------------------|------------------------------|------|| 


E|-------2-------------------2-------------0-----------3-----------|| 
B|-3-------3---3-----3-----------3-------5-----5-----5---5-------5-|| 
G|---2-------2---2-----2-------2-------5---------5-3-------3-------|| 
D|-----4-----------------4-----------5-----------------------5-----|| 
A|-2-----2---------2-------2-------0---------0---------------------|| 
E|-------------------------------------------------3-----------3---|| 


E|----------0-------------0-----------------0-----------------------0-------|| 
B|--3---------3---3-2-------2-----2-3---------3---3-5---3---2---------2-----|| 
G|----0---------0-----0-------0-------2---------2-----0---0---0---------0---|| 
D|------2-------------------------------4-----------------------2---------2-|| 
A|--2-----2---------0---0-------0---2-----2---------3---2---0-----0---------|| 
E|--------------------------------------------------------------------------|| 


E|---------0-------------0---------|| 
B|-7---------7-----7-------7-------|| 
G|---7---------7-----7-------7-----|| 
D|-----7---------7-----7-------7---|| 
A|-5-----5---------5-----5-------5-|| 
E|---------------------------------|| 


E|-------0-----0-----0-----0---------------0---------------0-------|| 
B|-5-------5-----5-----5-----5-----3-----------3---2---------2-----|| 
G|---5-------5-----------5-------5-----2---------2---0---------0---|| 
D|-----5-----------------------5-----4-------4---------2---------2-|| 
A|-0---------------0---------------2-----2---------0-----0---------|| 
E|-----------------------------------------------------------------|| 

    
                               (Vai ao "B", repete 2 vezes e à terceira fade out para terminar) 
                                             

E|-------0---------------0---------------0---------------0---------|| 
B|-0-------0-----0-0-------0-----0-3-------3---3---2-------2---2---|| 
G|---2---------2-----1-------1-------0-------0---0---0-------0-----|| 
D|-----0-----0---------0-------0-------2---------------2-----------|| 
A|-2-------------------------------------------2---0-------------0-|| 
E|-----------------1---------------0-------------------------------||  
  

cifra enviadasem correções
enviado porenviada por:jov-correa
top 5 | fausto bordalo dias
top regional
Outras músicas do artista letras do(a) Fausto Bordalo Dias
Top cifras »Top artistas »
Petaxxon Comunicação Online
Cifras.com.br - Melhor e mais completo site de cifras e tablaturas do Brasil
Mais de 1 milhão de acordes de músicas cadastradas desde 2003
As informações contidas no nosso site são colaborações de seus usuários e podem conter erros, sendo assim, não nos responsabilizamos sobre nenhuma destas.
close
menos
mais
close
Cor dos acordes:

Cor da letra:

 

save
close
close
 
redimensionar