Cifras e Tablaturas
Fernando Delgadillo

Fernando Delgadillo

La Recuerdo Así

Cifras Cancelar Versão de Impressão Print

Fernando Delgadillo - La Recuerdo Así

Tom: D

  			UN SALUDO ENORME PARA ANA MI GRAN AMOR, LA ADORO Y ES ESPECIALMENTE PARA MI UNA GRAN MUJER 


INTRO 
      D                                               D 
e|-----------|------------|-----5----------5-----|-----3------- 
b|-----3-----|------2-----|-------3----------3---|-------3----- 
g|-------0---|--------0---|---------0----------0-|---0-----0--- 
D|—--4-----4-|---4------4-|---4----------4-------|-0----------- 
A|-5---------|-5----------|-5----------5---------|------------- 
E|-----------|------------|----------------------|------------- 

         D                   D 
e|------3p2-------|-------2-----3p0------| 
b|----------3---3-|-----3---3---2p2--2---| 
g|----0-------0---|---0----------------0-| 
D|—-0-------------|-0--------------------| 
A|----------------|----------------------| 
E|----------------|----------------------| 

VERSO: 
       D           D		     D 
e|-----------|------------|----------------------| 
b|-----3-----|------2-----|------3----------2-2--| 
g|-------0---|--------0---|--------0-------------| 
D|—--4-----4-|---4------4-|---4------4----4------| 
A|-5---------|-5----------|-5-----------5--------| 
E|-----------|------------|----------------------| 
mejor la cama destendida que tu ausencia a mi lado mejor sus besos que tu nombre  

       G          G               G                     D 
e|-----------|------------|----------------------|-----3------------ 
b|-----3-----|-----2------|-----2h3--------------|-------3---------- 
g|-------0---|-------0----|----------------------|---0-----0-------- 
D|—--0-----0-|---0-----0--|---0------------------|-0---------------- 
A|-----------|------------|----------------------|------------------ 
E|-3---------|-3----------|-3--------------------|------------------ 
en mi boca y yo primavero y otoño en menos de una hora mientras la cono 

      A           A/A# 
e|----------|--------------0------| 
b|-----2----|-----2/3--------2----| 
g|--------2-|---------2--------2--| 
D|—--2------|---2-------2---------| 
A|-0--------|-1-------------------| 
E|----------|---------------------| 
zco se va uniendo a mi olvido esto es un tornillo, un espiral,  

             D                                Bm 
e|------0-----0-------------------|----------------------------- 
b|--------3-----3-----------------|-----2h3h2--------2h3h2------ 
g|----2-----2---------------------|-----------2------------2---- 
D|—-0-----------------------------|---4---------4--4---------4-- 
A|--------------------------------|-2--------------------------- 
E|--------------------------------|----------------------------- 
un ciclo esto de no tenerte y buscarte en pechos desconocidos 
en un nombre que no recuerdo 

	   G					G 
e|--------------------------------|----------------------------- 
b|-----2h3h2----------------------|-----2h3h2--------2h3h2------ 
g|---2------2---------------------|---2-------2------------2---- 
D|—-----------4-------------------|-------------4--4---------4-- 
A|--------------------------------|----------------------------- 
E|-3------------------------------|-3--------------------------- 
en un viento en el que no vuelvo es un punto mas a la lista de fracasos 

	A				D 
e|--------0---------------------|-----0----------------------- 
b|----0h2-----------------------|----3-3---------------------- 
g|------------------------------|---2---2--------------------- 
D|—-2---------------------------|--0-------------------------- 
A|-0----------------------------|----------------------------- 
E|------------------------------|----------------------------- 
que guardo en el cajon junto a tu recuerdo. 

	D                       D                     D 
e|---------------------|---------------------|-----5---3-----3---- 
b|-------3---2---------|-------3---2---------|-----------0-------- 
g|-----0-------0---0---|-----0-------0---0---|-------0-----0------ 
D|—--4-----4-----4---4-|---4-----4-----4---4-|---4---------------- 
A|-5-------------------|-5-------------------|-5------------------ 
E|---------------------|---------------------|-------------------- 

         D                 D                  G 
e|-----5---3-----3-|-----3---2-----2-|------2---0------0---------- 
b|-----------0-----|-------0---0-----|----3--------3-------------- 
g|-------0-----0---|-------------0---|--0-----0------0------------ 
D|---4-------------|---4-------------|---------------------------- 
A|-5---------------|-5---------------|---------------------------- 
E|-----------------|-----------------|-3-------------------------- 

         G 
e|------2---0-----------| 
b|----3---------2h3h2---| 
g|--0-----0---0-------0-| 
D|----------------------| 
A|----------------------| 
E|-3--------------------| 

         D                    D                  G 
e|---------------------|---------------------|------------------------- 
b|-------3---2---------|-------3---2---------|----3--2----------------- 
g|-----0-------0---0---|-----0-------0---0---|---------0--------------- 
D|—--4-----4-----4---4-|---4-----4-----4---4-|--0--0-----0------------- 
A|-5-------------------|-5-------------------|------------------------- 
E|---------------------|---------------------|-3----------------------- 
				   la recuerdo asi como luz de  


      A       A/A#            Bm                     G 
e|---------------------|-------------------|-----------3------------- 
b|------2----------2---|--------3----3-----|----------3-3------------ 
g|---------------------|---------------2---|------------------------- 
D|—--2----------2------|------4---4------4-|---------0--------------- 
A|-0----------1--------|----2--------0-----|------------------------- 
E|---------------------|-------------------|-------3----------------- 
  dia  que deslumbra en el umbral        como casa de muñecas 

   A/A#           Bm                G           A 
e|-------2-|------------------|----------3----------0--- 
b|-----2---|-------3----3-----|--------3---3------2----- 
g|---------|--------------2---|------------------------- 
D|—--2-----|-----4---4------4-|------0----------2------- 
A|-1-------|---2--------0-----|---------------0--------- 
E|---------|------------------|----3-------------------- 
  todo en su lugar con todo    dispuesto para empezar a  

     D        C#m        G           A             D 
e|--------------5-----------0-------------0------------------------------ 
b|------2/5---5---5-------3-------------2----------3---2----------------- 
g|----2------------------------------------------0--------0---0---------- 
D|—-0---------4---------0-------------2--------4-----4------4------------ 
A|----------------------------------0--------5--------------------------- 
E|---------------------3------------------------------------------------- 
   Jugar tenia tantas ganas para empezar a jugar 

            G G/D 
la recuerdo asi 
           A            A/A# 
como la promesa que le hize 
        Bm Asus 
y no cumpli 
                G 
no importa este mundo 
          A/A#        Bm  Asus 
en contra me tienes a mi 
            G             A 
pero cuando le hize falta ya no estaba  

     D        C#m       G	     G              A 
e|--------------5-----------0------------0------------0------------------ 
b|------2/5---5---5-------3------------3------------2-------------------- 
g|----2------------------------------------------------------------------ 
D|—-0---------4---------0------------0------------2---------------------- 
A|----------------------------------------------0------------------------ 
E|---------------------3-----------3------------------------------------- 
    allí            le hize tanta falta y ya no me encontraba  

    G         G            G             D/F# 
e|--------0---------0---|-3-2-0---0h2-------2h3-3-----3h2------- 
b|----2h3-------2h3-----|-------------------------0-------0----- 
g|--0---------0-------0-|-------0---------2---------2-------2--- 
D|----------------------|--------------------------------------- 
A|----------------------|--------------------------------------- 
E|-3--------3-----------|-3-3-3---------2----------------------- 
  alli 

      G         G  
e|--------0---------0---| 
b|----2h3-------2h3-----| 
g|--0---------0-------0-| 
D|----------------------| 
A|----------------------| 
E|-3--------3-----------| 

       D                      D                  G 
e|---------------------|---------------------|------------------------- 
b|-------3---2---------|-------3---2---------|----3--2----------------- 
g|-----0-------0---0---|-----0-------0---0---|---------0--------------- 
D|—--4-----4-----4---4-|---4-----4-----4---4-|--0--0-----0------------- 
A|-5-------------------|-5-------------------|------------------------- 
E|---------------------|---------------------|-3----------------------- 
                                  la recuerdo asi 
                 A    A/A# 
me dijo no digas nada calla 
	 Bm Asus 
y no la oi 
               G  
solo queria un beso dulce 
A/A#     Bm    Asus 
antes de partir 
	       G 
no queria que la mirara  
 A             D 
llorar nuestro fin 
	      G 
no queria que la mirara  
 A	     D 
llorar este fin 

e|---------------------|---------------------|------------------------- 
b|-------3---2---------|-------3---2---------|----3--2----------------- 
g|-----0-------0---0---|-----0-------0---0---|---------0--------------- 
D|—--4-----4-----4---4-|---4-----4-----4---4-|--0--0-----0------------- 
A|-5-------------------|-5-------------------|------------------------- 
E|---------------------|---------------------|-3----------------------- 
                                  la recuerdo asi 

e|---------------------|-------------------|-----------3------------- 
b|------2----------2---|--------3----3-----|----------3-3------------ 
g|---------------------|---------------2---|------------------------- 
D|—--2----------2------|------4---4------4-|---------0--------------- 
A|-0----------1--------|----2--------0-----|------------------------- 
E|---------------------|-------------------|-------3----------------- 
con el nudo en la garganta y ganas de mentir y decirme todo va a estar  


e|-----3/2-------------|-------------------|-----------3----------------0 
b|---------3/2---------|--------3----3-----|----------3-3-------------2-- 
g|-------------2-------|---------------2---|----------------------------- 
D|—--2-----------------|------4---4------4-|---------0--------------2---- 
A|-1-------------------|----2--------0-----|----------------------0------ 
E|---------------------|-------------------|-------3--------------------- 
   Bien      si tu no estas aquí     no soy la primera y no eres el  

e|--------------5-----------0-------------0-- 
b|------2/5---5---5-------3-------------2---- 
g|----2-------------------------------------- 
D|—-0---------4---------0-------------2------ 
A|----------------------------------0-------- 
E|---------------------3--------------------- 
ultimo asi   no soy la primera y no eres el ultimo   

e|--------0---------0---|-3-2-0---0h2-------2h3-3-----3h2------- 
b|----2h3-------2h3-----|-------------------------0-------0----- 
g|--0---------0-------0-|-------0---------2---------2-------2--- 
D|----------------------|--------------------------------------- 
A|----------------------|--------------------------------------- 
E|-3--------3-----------|-3-3-3---------2----------------------- 
  Asi 

e|--------0---------0---|-3-2-0-------- 
b|----2h3-------2h3-----|-------3-3---- 
g|--0---------0-------0-|-------------- 
D|----------------------|-------------- 
A|----------------------|-------------- 
E|-3--------3-----------|-3-3-3-3-3---- 

 Y ACABAN CON UN BREVE RASGUEO EN D 

DUDAS COMENTARIOS Y/O ACLARACIONES ESCRIBANME  
POR FAVOR A [email protected] GRACIAS =)
    	
fixar
fixar inscrever-se

enviado porenviado por: aman_claudino
cifra enviadaCorrigida por: sem correções
logo top cifrasComente
ico música do artistaMúsicas deste artista
ico curtiuCurtiu?
ico destaqueDestaque
Petaxxon Comunicação Online

Cifras.com.br - Melhor e mais completo site de cifras e tablaturas do Brasil Mais de 1 milhão de acordes de músicas cadastradas desde 2003
As informações contidas no nosso site são colaborações de seus usuários e podem conter erros, sendo assim, não nos responsabilizamos sobre nenhuma destas.

close
menos
mais
close
Cor dos acordes:

Cor da letra:

close
Alinhar acordes a direita Alinhar acordes a esquerda Alinhar acordes em baixo Alinhar acordes no topo
close
  Mostrar todos os acordes Esconder acordes muito fáceis Esconder acordes fáceis Esconder acordes intermediários
redimensionar
glossário