Cifras e Tablaturas
Fidlar

Fidlar

Thought Mouth

Cifras Cancelar Versão de Impressão Print

Fidlar - Thought Mouth

Tom:

  			
Intro 
e|-----------------|-----------------|-----------------|-----------------| 
B|-----------------|-----------------|-----------------|-----------------| 
G|-----------------|-----------------|-----------------|---------12-14---| 
D|-----------------|-----------------|-----------------|-----/14---------| 
A|-----------------|-----------------|-----------------|-----------------| 
E|-----------------|-----------------|-----------------|-----------------| 

e|-----------------|-----------------|-----------------|-----------------| 
B|-----------------|-----------------|-----------------|-----------------| 
G|-----------------|-----------------|-----------------|-----------------| 
D|-----------------|-----------------|-----------------|-----------------| 
A|-----------------|-----------------|-----------------|-----------------| 
E|-----------------|-----------------|-----------------|------3-5-3------| 

e|-----------------|-----------------|-----------------|-----------------| 
B|-----------------|-----------------|-----------------|-----------------| 
G|--9~-------------|--7~---6~--------|-----------------|-----------------| 
D|-----------------|-----------------|-----------------|-----------------| 
A|-----------------|-----------------|-----------------|-----------------| 
E|-----------------|-----------------|-----------------|-----------------| 


Pre-Chorus 1 
e|----------------7-5--|--5--5-5--5------------|--5--5-5--5------------| 
B|--9/5--7-(5)-7--5-5--|--5--5-5--5-----5-7b8--|--5--5-5--5------------| 
G|--9/6--6-(6)-6--6-6--|--6--6-6--6--/6--------|--6--6-6--6------------| 
D|---------------------|--7--7-7--7------------|--7--7-7--7------------| 
A|---------------------|--7----7---------------|--7----7---------------| 
E|---------------------|--5----5---------------|--5----5---------------| 


Chorus 1 
e|-----------------------|-----------------------|-----------------------|-----------------------| 
B|-----------------------|-----------------------|-----------------------|-----------------------| 
G|--2-2-2----------------|--2-2-2--------4--3/4--|--2-2-2--------4-------|-----------------------| 
D|--2-2-2-2--------------|--2-2-2-2------4-------|--2-2-2-2------4-------|--4------/7------------| 
A|--0-0-0-2--------------|--0-0-0-2------2-------|--0-0-0-2------2-------|--4------/7------------| 
E|--------0--------------|--------0--------------|--------0--------------|--2------/5------------| 

e|-------------------|-------------------|-------------------|-------------------| 
B|-------------------|-------------------|--0-0-0-0-0-0-0-0--|--0-0-0-0-0-0-0-0--| 
G|--2-2-2------------|--4-4-4-4-4-4-4-4--|--6-6-6-8-6-4-1-4--|--9-9-9-8-8-8-8-8--| 
D|--2-2-2-2-2-2-2-2--|--4-4-4-4-4-4-4-4--|-------------------|-------------------| (x2) 
A|--0-0-0-2-2-2-2-2--|--2-2-2-2-2-2-2-2--|-------------------|-------------------| 
E|--------0-0-0-0-0--|-------------------|-------------------|-------------------| 

e|-------------------|-------------------|-------------------|-------------------| 
B|-------------------|-------------------|-------------------|-------------------| 
G|--2-2-2------------|--4-4-4-4-4-4-4-4--|--2-2-2------------|--4-4-4-4-4-4-4-4--| 
D|--2-2-2-2-2-2-2-2--|--4-4-4-4-4-4-4-4--|--2-2-2-2-2-2-2-2--|--4-4-4-4-4-4-4-4--| 
A|--0-0-0-2-2-2-2-2--|--2-2-2-2-2-2-2-2--|--0-0-0-2-2-2-2-2--|--2-2-2-2-2-2-2-2--| 
E|--------0-0-0-0-0--|-------------------|--------0-0-0-0-0--|-------------------| 

e|-------------------|-------------------|-------------------|-------------------| 
B|-------------------|-------------------|-------------------|-------------------| 
G|--2-2-2------------|--4-4-4-4-4-4-4-4--|-------------------|-------------------| 
D|--2-2-2-2-2-2-2-2--|--4-4-4-4-4-4-4-4--|--4--4---7-7-6--9--|-------------------| 
A|--0-0-0-2-2-2-2-2--|--2-2-2-2-2-2-2-2--|--4--4---7-7-6--9--|-------------------| 
E|--------0-0-0-0-0--|-------------------|--2--2---5-5-4--7--|-------------------| 


Bridge 
Guitar 1 
e|------------------------------|-----------------------------|-------------------------------------|| 
B|--------12----------------12--|-----------------------------|-------------------------------------|| 
G|-----------11-9--11b13--------|--13br11-9--9--9----9--9-----|--11b13-13-13-13-13-13br11--9hh11-9--|| 
D|---8/9------------------------|------------9--9h11---11-----|-------------------------------------|| 
A|------------------------------|-----------------------------|-------------------------------------|| 
E|------------------------------|-----------------------------|-------------------------------------|| 
Guitar 2                                                                                             | 
e|------------------------------|-----------------------------|-------------------------------------|| 
B|------------------------------|-----------------------------|-------------------------------------|| 
G|------------------------------|-----------------------------|-------------------------------------|| 
D|-----------------16b18--------|--18br16-14------------------|-------------------------------------|| 
A|------------------------------|------------14---------------|--14h16-14---------------14------14--|| 
E|------------------------------|-----------------------------|-----------14/16--14-----12------12--|| 


Guitar 1                                     "Whoops I..." 
e|----------------------12-------------------|-------------------------------------------|| 
B|---------------------------12--------------|---------------------------------12--------|| 
G|-------------11b13----------------11b13~---|-----------------------9---11/13-----------|| 
D|-------------------------------------------|-------------------------------------------|| 
A|-------------------------------------------|-------------------------------------------|| 
E|-------------------------------------------|-------------------------------------------|| 
Guitar 2                                                                                  | 
e|-------------------------------------------|-------------------------------------------|| 
B|--------5-----5---------12-----------------|-------------------------------------------|| 
G|--4h6-6---4h6-----11b13----13br11--9----9--|--9----11--x--11---------------------------|| 
D|-------------------------------------11----|--9-----9--x---9---------------------------|| 
A|-------------------------------------------|-------------------------------------------|| 
E|-------------------------------------------|-------------------------------------------|| 


Guitar 1 
e|-------------------------------------------|-------------------------------------------|| 
B|----------------------12-------------------|----------------------12--12--12-----------|| 
G|----------------11b13----13-13br11-9----9--|----------------11b13--------------13pbr11-|| 
D|-------------------------------------11----|-------------------------------------------|| 
A|-------------------------------------------|-------------------------------------------|| 
E|-------------------------------------------|-------------------------------------------|| 
Guitar 2                                                                                  | 
e|------------------------------12----12-12--|----------------------16pbr14--12----12----|| 
B|------------------------12h14----12--------|----------------------------------14-------|| 
G|--9----11--x--11---------------------------|--9----11--x--11---------------------------|| 
D|--9-----9--x---9---------------------------|--9-----9--x---9---------------------------|| 
A|-------------------------------------------|-------------------------------------------|| 
E|-------------------------------------------|-------------------------------------------|| 


Guitar 1 
e|------------------------------------------|-------------------------------------------------------------|| 
B|------------------------------------------|-------12--------------------------------12--12--12----------|| 
G|----------------------9-11--x-11----------|-11b13----13pbr11p9----9----------11b13--------------13pbr11-|| 
D|--------------9-------9--9--x--9----------|--------------------11---------------------------------------|| 
A|---------7--------------------------------|-------------------------------------------------------------|| 
E|--7h9-------------------------------------|-------------------------------------------------------------|| 
Guitar 2                                                                                                   | 
e|------------------------------------------|-------------------------------------------------------------|| 
B|------------------------------------------|-------------------------------------------------------------|| 
G|--11b13-13-13pbr11-9----------------------|-------------------------------------------------------------|| 
D|---------------------11-------11p9-7-7\6--|-----------------------6p4-6--2--------2-4br5-2h4-2---2------|| 
A|------------------------------------------|-----------------------------------2h4--------------4--------|| 
E|------------------------------------------|-------------------------------------------------------------|| 


Guitar 1 
e|--------------|| 
B|--------------|| 
G|--------------|| 
D|------4/6-----|| 
A|--------------|| 
E|--------------|| 
Guitar 2         | 
e|--------------|| 
B|--------------|| 
G|--------------|| 
D|--------9--9--|| 
A|------7-------|| 
E|--7h9---------|| 


Pre-Chorus 2 
e|----------------7-5--|--5--5-5--5------------|--5--5-5--5------------| 
B|--9/5--7-(5)-7--5-5--|--5--5-5--5-----5-7b8--|--5--5-5--5------------| 
G|--9/6--6-(6)-6--6-6--|--6--6-6--6--/6--------|--6--6-6--6------------| 
D|---------------------|--7--7-7--7------------|--7--7-7--7------------| 
A|---------------------|--7----7---------------|--7----7---------------| 
E|---------------------|--5----5---------------|--5----5---------------| 

Chorus 2 
e|-----------------------|-----------------------|-----------------------|-----------------------| 
B|-----------------------|-----------------------|-----------------------|-----------------------| 
G|--2-2-2----------------|--2-2-2--------4--3/4--|--2-2-2--------4-------|-----------------------| 
D|--2-2-2-2--------------|--2-2-2-2------4-------|--2-2-2-2------4-------|--4------/7------------| 
A|--0-0-0-2--------------|--0-0-0-2------2-------|--0-0-0-2------2-------|--4------/7------------| 
E|--------0--------------|--------0--------------|--------0--------------|--2------/5------------| 

e|-------------------|-------------------|-------------------|-------------------| 
B|-------------------|-------------------|--0-0-0-0-0-0-0-0--|--0-0-0-0-0-0-0-0--| 
G|--2-2-2------------|--4-4-4-4-4-4-4-4--|--6-6-6-8-6-4-1-4--|--9-9-9-8-8-8-8-8--| 
D|--2-2-2-2-2-2-2-2--|--4-4-4-4-4-4-4-4--|-------------------|-------------------| (x2) 
A|--0-0-0-2-2-2-2-2--|--2-2-2-2-2-2-2-2--|-------------------|-------------------| 
E|--------0-0-0-0-0--|-------------------|-------------------|-------------------| 

e|-------------------|-------------------|-------------------|-------------------| 
B|-------------------|-------------------|-------------------|-------------------| 
G|--2-2-2------------|--4-4-4-4-4-4-4-4--|--2-2-2------------|--4-4-4-4-4-4-4-4--| 
D|--2-2-2-2-2-2-2-2--|--4-4-4-4-4-4-4-4--|--2-2-2-2-2-2-2-2--|--4-4-4-4-4-4-4-4--| 
A|--0-0-0-2-2-2-2-2--|--2-2-2-2-2-2-2-2--|--0-0-0-2-2-2-2-2--|--2-2-2-2-2-2-2-2--| 
E|--------0-0-0-0-0--|-------------------|--------0-0-0-0-0--|-------------------| 

e|-------------------|-------------------|-------------------|-------------------| 
B|-------------------|-------------------|--0-0-0-0-0-0-0-0--|--0-0-0-0-0-0-0-0--| 
G|--2-2-2------------|--4-4-4-4-4-4-4-4--|--6-6-6-8-6-4-1-4--|--9-9-9-8-8-8-8-8--| 
D|--2-2-2-2-2-2-2-2--|--4-4-4-4-4-4-4-4--|-------------------|-------------------| (x3) 
A|--0-0-0-2-2-2-2-2--|--2-2-2-2-2-2-2-2--|-------------------|-------------------| 
E|--------0-0-0-0-0--|-------------------|-------------------|-------------------| 



************************************ 

| x   Dead note 
| (n) Ghost note 
| h   Hammer-on 
| p   Pull-off 
| b   Bend 
| br  Bend release 
| pbr Pre-bend release 
| /   Slide up 
| \   Slide down 
| ~   Vibrato 

************************************ 
    	
fixar
fixar inscrever-se

enviado porenviado por: VsWorld
cifra enviadaCorrigida por: sem correções
logo top cifrasComente
ico música do artistaMúsicas deste artista
ico curtiuCurtiu?
ico destaqueDestaque
Petaxxon Comunicação Online

Cifras.com.br - Melhor e mais completo site de cifras e tablaturas do Brasil Mais de 1 milhão de acordes de músicas cadastradas desde 2003
As informações contidas no nosso site são colaborações de seus usuários e podem conter erros, sendo assim, não nos responsabilizamos sobre nenhuma destas.

close
menos
mais
close
Cor dos acordes:

Cor da letra:

close
Alinhar acordes a direita Alinhar acordes a esquerda Alinhar acordes em baixo Alinhar acordes no topo
close
  Mostrar todos os acordes Esconder acordes muito fáceis Esconder acordes fáceis Esconder acordes intermediários
redimensionar
glossário