Cifras e Tablaturas
Field Medic

Field Medic

Tombstone Poetry

Cifras Cancelar Versão de Impressão
cifras

Field Medic - Tombstone Poetry

fixar na tela  
Exibindo: vídeo-aula ver clipes redimensionar
  
Intro x2 
D |---------------------------------------------------------------------| 
A |------0-----0---------0-----0--------0-----0---------0-----0---------| 
F#|----0-----0-----0---0-----0----0---0-----0-----0---0-----0-----0-----| 
D |--------4---------------2--------------0---------------2-------------| 
A |--5-----------5---4----------4---2-----------2---4-----------4-------| 
D |---------------------------------------------------------------------| 

Verse 
"Tell me now doll when you come around" 
D |---------------------------------------------------------------------| 
A |------0-----0---------0-----0--------0-----0---------0-----0---------| 
F#|----0-----0-----0---0-----0----0---0-----0-----0---0-----0-----0-----| 
D |--------4---------------2--------------0---------------2-------------| 
A |--5-----------5---4----------4---2-----------2---4-----------4-------| 
D |---------------------------------------------------------------------| 

"Or when i lose my head when i lose my head" 
D |---------------------------------------------------------------------| 
A |------0-----0---------0-----0--------0-----0---------0-----0---------| 
F#|----0-----0-----0---0-----0----0---0-----0-----0---0-----0-----0-----| 
D |--------4---------------2--------------0---------------2-------------| 
A |--5-----------5---4----------4---2-----------2---4-----------4-------| 
D |---------------------------------------------------------------------| 

D |-------------------| 
A |------0-----0------| 
F#|----0-----0-----0--| 
D |--------2----------| 
A |--4-----------4----| 
D |-------------------| 

Chorus 
"Tombstone poetry" 
D |------4---------------4---------------7---------------7---------------| 
A |------------0---------------0---------------0---------------0---------| 
F#|----0-----0-----0---0-----0-----0---0-----0-----0---0-----0-----0-----| 
D |--------0---------------0---------------0---------------0-------------| 
A |----------------------------------------------------------------------| 
D |--5-----------5---5-----------5---9-----------9---9-----------9-------| 

"She's speaking from her grave" 
D |------0-------------------------------0-------------------------------| 
A |------------0---------4-----4---------------0---------4-----4---------| 
F#|----0-----0-----0---0-----0-----0---0-----0-----0---0-----0-----0-----| 
D |--------0---------------2---------------0---------------2-------------| 
A |------------------4-----------4-------------------4-----------4-------| 
D |--2-----------2-------------------2-----------2-----------------------| 

"& i get it" 
D |------4---------------4---------------7---------------7---------------| 
A |------------0---------------0---------------0---------------0---------| 
F#|----0-----0-----0---0-----0-----0---0-----0-----0---0-----0-----0-----| 
D |--------0---------------0---------------0---------------0-------------| 
A |----------------------------------------------------------------------| 
D |--5-----------5---5-----------5---9-----------9---9-----------9-------| 

"In a dream i circled blue lakes" 
D |------0-------------------------------0-------------------------------| 
A |------------0---------4-----4---------------0---------4-----4---------| 
F#|----0-----0-----0---0-----0-----0---0-----0-----0---0-----0-----0-----| 
D |--------0---------------2---------------0---------------2-------------| 
A |------------------4-----------4-------------------4-----------4-------| 
D |--2-----------2-------------------2-----------2-----------------------| 

Hook 
"Swimming with you" 
D |----------------------0-------------------------------0---------------| 
A |------0-----0---------------0---------0-----0---------------0---------| 
F#|----0-----0-----0---0-----0-----0---6-----6-----6---6-----6-----6-----| 
D |--------4---------------4---------------0---------------0-------------| 
A |----------------------------------------------------------------------| 
D |--5-----------5---5-----------5---4-----------4---4-----------4-------| 

"Swimming with you" 
D |------4---------------4---------------2---------------2---------------| 
A |------------0---------------0---------------0---------------0---------| 
F#|----0-----0----0----0-----0-----0---0-----0-----0---0-----0-----0-----| 
D |--------0---------------0---------------0---------------0-------------| 
A |--2----------2---2-----------2---4-----------4---4-----------4--------| 
D |----------------------------------------------------------------------| 

Verse 
"Tell me now doll when you come around" 
D |---------------------------------------------------------------------| 
A |------0-----0---------0-----0--------0-----0---------0-----0---------| 
F#|----0-----0-----0---0-----0----0---0-----0-----0---0-----0-----0-----| 
D |--------4---------------2--------------0---------------2-------------| 
A |--5-----------5---4----------4---2-----------2---4-----------4-------| 
D |---------------------------------------------------------------------| 

"Or when i lose my head when i lose my head" 
D |---------------------------------------------------------------------| 
A |------0-----0---------0-----0--------0-----0---------0-----0---------| 
F#|----0-----0-----0---0-----0----0---0-----0-----0---0-----0-----0-----| 
D |--------4---------------2--------------0---------------2-------------| 
A |--5-----------5---4----------4---2-----------2---4-----------4-------| 
D |---------------------------------------------------------------------| 

D |-------------------| 
A |------0-----0------| 
F#|----0-----0-----0--| 
D |--------2----------| 
A |--4-----------4----| 
D |-------------------| 

Chorus 
"Burnt up, fallen angels" 
D |------4---------------4---------------7---------------7---------------| 
A |------------0---------------0---------------0---------------0---------| 
F#|----0-----0-----0---0-----0-----0---0-----0-----0---0-----0-----0-----| 
D |--------0---------------0---------------0---------------0-------------| 
A |----------------------------------------------------------------------| 
D |--5-----------5---5-----------5---9-----------9---9-----------9-------| 

"She speaks in their mother tongue" 
D |------0-------------------------------0-------------------------------| 
A |------------0---------4-----4---------------0---------4-----4---------| 
F#|----0-----0-----0---0-----0-----0---0-----0-----0---0-----0-----0-----| 
D |--------0---------------2---------------0---------------2-------------| 
A |------------------4-----------4-------------------4-----------4-------| 
D |--2-----------2-------------------2-----------2-----------------------| 

"& how would it feel then" 
D |------4---------------4---------------7---------------7---------------| 
A |------------0---------------0---------------0---------------0---------| 
F#|----0-----0-----0---0-----0-----0---0-----0-----0---0-----0-----0-----| 
D |--------0---------------0---------------0---------------0-------------| 
A |----------------------------------------------------------------------| 
D |--5-----------5---5-----------5---9-----------9---9-----------9-------| 

"Among all this broken furniture" 
D |------0-------------------------------0-------------------------------| 
A |------------0---------4-----4---------------0---------4-----4---------| 
F#|----0-----0-----0---0-----0-----0---0-----0-----0---0-----0-----0-----| 
D |--------0---------------2---------------0---------------2-------------| 
A |------------------4-----------4-------------------4-----------4-------| 
D |--2-----------2-------------------2-----------2-----------------------| 

Hook 
"Did he love you like i do?" 
D |----------------------0-------------------------------0---------------| 
A |------0-----0---------------0---------0-----0---------------0---------| 
F#|----0-----0-----0---0-----0-----0---6-----6-----6---6-----6-----6-----| 
D |--------4---------------4---------------0---------------0-------------| 
A |----------------------------------------------------------------------| 
D |--5-----------5---5-----------5---4-----------4---4-----------4-------| 

"Did he love you like i do?" 
D |------4---------------4---------------2---------------2---------------| 
A |------------0---------------0---------------0---------------0---------| 
F#|----0-----0----0----0-----0-----0---0-----0-----0---0-----0-----0-----| 
D |--------0---------------0---------------0---------------0-------------| 
A |--2----------2---2-----------2---4-----------4---4-----------4--------| 
D |----------------------------------------------------------------------| 

"Did he love you like i do?" 
D |----------------------0-------------------------------0---------------| 
A |------0-----0---------------0---------0-----0---------------0---------| 
F#|----0-----0-----0---0-----0-----0---6-----6-----6---6-----6-----6-----| 
D |--------4---------------4---------------0---------------0-------------| 
A |----------------------------------------------------------------------| 
D |--5-----------5---5-----------5---4-----------4---4-----------4-------| 

"Did he love you like i do?" 
D |------4---------------4---------------2---------------2---------------| 
A |------------0---------------0---------------0---------------0---------| 
F#|----0-----0----0----0-----0-----0---0-----0-----0---0-----0-----0-----| 
D |--------0---------------0---------------0---------------0-------------| 
A |--2----------2---2-----------2---4-----------4---4-----------4--------| 
D |----------------------------------------------------------------------| 

Verse 
"Tell me now doll when you come around" 
D |---------------------------------------------------------------------| 
A |------0-----0---------0-----0--------0-----0---------0-----0---------| 
F#|----0-----0-----0---0-----0----0---0-----0-----0---0-----0-----0-----| 
D |--------4---------------2--------------0---------------2-------------| 
A |--5-----------5---4----------4---2-----------2---4-----------4-------| 
D |---------------------------------------------------------------------| 

"Or when i lose my head when i lose my head" 
D |---------------------------------------------------------------------| 
A |------0-----0---------0-----0--------0-----0---------0-----0---------| 
F#|----0-----0-----0---0-----0----0---0-----0-----0---0-----0-----0-----| 
D |--------4---------------2--------------0---------------2-------------| 
A |--5-----------5---4----------4---2-----------2---4-----------4-------| 
D |---------------------------------------------------------------------| 

D |---------------------------------------------------| 
A |------0-----0---------0-----0---------0-----0------| 
F#|----0-----0-----0---0-----0-----0---0-----0-----0--| 
D |--------2---------------2---------------2----------| 
A |--4-----------4---4-----------4---4-----------4----| 
D |---------------------------------------------------| 

Hook 
"Did he love you like i do?" 
D |----------------------0-------------------------------0---------------| 
A |------0-----0---------------0---------0-----0---------------0---------| 
F#|----0-----0-----0---0-----0-----0---6-----6-----6---6-----6-----6-----| 
D |--------4---------------4---------------0---------------0-------------| 
A |----------------------------------------------------------------------| 
D |--5-----------5---5-----------5---4-----------4---4-----------4-------| 

"Did he love you like i do?" 
D |------4---------------4---------------2---------------2---------------| 
A |------------0---------------0---------------0---------------0---------| 
F#|----0-----0----0----0-----0-----0---0-----0-----0---0-----0-----0-----| 
D |--------0---------------0---------------0---------------0-------------| 
A |--2----------2---2-----------2---4-----------4---4-----------4--------| 
D |----------------------------------------------------------------------| 

"Did he love you like i do?" 
D |----------------------0-------------------------------0---------------| 
A |------0-----0---------------0---------0-----0---------------0---------| 
F#|----0-----0-----0---0-----0-----0---6-----6-----6---6-----6-----6-----| 
D |--------4---------------4---------------0---------------0-------------| 
A |----------------------------------------------------------------------| 
D |--5-----------5---5-----------5---4-----------4---4-----------4-------| 

"Did he love you like i do?" 
D |------4---------------4---------------2---------------2---------------| 
A |------------0---------------0---------------0---------------0---------| 
F#|----0-----0----0----0-----0-----0---0-----0-----0---0-----0-----0-----| 
D |--------0---------------0---------------0---------------0-------------| 
A |--2----------2---2-----------2---4-----------4---4-----------4--------| 
D |----------------------------------------------------------------------| 

"Did he love you like i do?" 
D |---------------------------------------------------------------------| 
A |------0-----0---------0-----0--------0-----0---------0-----0---------| 
F#|----0-----0-----0---0-----0----0---0-----0-----0---0-----0-----0-----| 
D |--------4---------------2--------------0---------------2-------------| 
A |--5-----------5---4----------4---2-----------2---4-----------4-------| 
D |---------------------------------------------------------------------| 

"Did he love you like i do?" 
D |---------------------------------------------------------------------| 
A |------0-----0---------0-----0--------0-----0---------0-----0---------| 
F#|----0-----0-----0---0-----0----0---0-----0-----0---0-----0-----0-----| 
D |--------4---------------2--------------0---------------2-------------| 
A |--5-----------5---4----------4---2-----------2---4-----------4-------| 
D |---------------------------------------------------------------------| 

D |-------------------| 
A |------0-----0------| 
F#|----0-----0-----0--| 
D |--------2----------| 
A |--4-----------4----| 
D |-------------------| 

D |-----| 
A |-----| 
F#|--0--| 
D |--4--| 
A |--5--| 
D |-----| 
  

top 5 | field medic
top rock'n roll
Outras músicas do artista letras do(a) Field Medic
5.
Uuu
Top cifras »Top artistas »
Petaxxon Comunicação Online
Cifras.com.br - Melhor e mais completo site de cifras e tablaturas do Brasil
Mais de 1 milhão de acordes de músicas cadastradas desde 2003
As informações contidas no nosso site são colaborações de seus usuários e podem conter erros, sendo assim, não nos responsabilizamos sobre nenhuma destas.
close
menos
mais
close
Cor dos acordes:

Cor da letra:

 

save
close
close
 
redimensionar