Cifras e Tablaturas
Fink

Fink

Sort Of Revolution

Cifras Cancelar Versão de Impressão
cifras

Fink - Sort Of Revolution

fixar na tela  
Exibindo: vídeo-aula ver clipes redimensionar
  
D A D G B E 


Intro e versos: 


D|--------------------------------------------------------------------------| 
B|--------------------------------------------------------------------------| 
G|-----0-------0-------0-------0-------0-------0-------0-------0------------| 
D|-----0-------0-------0-------0-------0-------0-------0-------0------------| 
A|--------------------------------------------------------------------------| 
D|-0-0---0-0-0---0-0-0---0-0-0---0-2-2---2-2-2---2-2-2---2-2-2---2----------| 


                 We've come so far...              there's no going...     


D|--------------------------------------------------------------------------| 
B|--------------------------------------------------------------------------| 
G|-----0-------0-----0-------0-------0-------0-------0-------0--------------| 
D|-----0-------0-----0-------0-------0-------0-------0-------0--------------| 
A|--------------------------------------------------------------------------| 
D|-9-9---9-9-9---9-9---9-9-9---9-9-9---9-9-9---9-9-9---9-9-9---9------------| 


        ...back 


D|--------------------------------------------------------------------------| 
B|--------------------------------------------------------------------------| 
G|--------------------------------------------------------------------------| 
D|-----4-------4-------4-------4-------0-------0-------0-------0------------| 
A|-----5-------5-------5-------5-------2-------2-------9-------9------------| 
D|-0-0---0-0-0---0-0-0---0-0-0---0-2-2---2-2-2---2-9-9---9-9-9---9----------| 


                   All this time...        that we've waited for it 


D|--------------------------------------------------------------------------| 
B|--------------------------------------------------------------------------| 
G|--------------------------------------------------------------------------| 
D|-----0-------0-------0-------0-------0-------0-------0-------0------------| 
A|-----9-------9-------9-------9-------9-------9-------9-------9------------| 
D|-9-9---9-9-9---9-9-9---9-9-9---9-9-9---9-9-9---9-9-9---9-9-9---9----------| 



#Pre-Chorus 


D|--------------------------------------------------------------------------| 
B|--------------------------------------------------------------------------| 
G|-----4-------4-------4-------------------4-------4-------4----------------| 
D|-----0-------0-------0----------0--------0-------0-------0----------0-----| 
A|-------------------------------12----------------------------------12-----| 
D|-5-5---5-5-5---5-5-5---5-12-12----12-5-5---5-5-5---5-5-5---5-12-12----12--| 


   Mmmmmmmmmmmmmmmmhhhhhhhh...                         we've come so far     


D|--------------------------------------------------------------------------| 
B|--------------------------------------------------------------------------| 
G|--------------------------------------------------------------------------| 
D|-----0-------0-------0-------0-------0-------0-------0-------0------------| 
A|-----9-------9-------9-------9-------9-------9-------4-------4------------| 
D|-9-9---9-9-9---9-9-9---2-2-9---9-9-9---9-9-9---9-4-4---4-4-4---4----------| 



#Chorus 


D|--------------------------------------------------------------------------| 
B|--------------------------------------------------------------------------| 
G|-----7-------7-------7-------7-------0-------0-------0-------0------------| 
D|-----4-------4-------4-------4-------0-------0-------0-------0------------| 
A|-----5-------5-------5-------5-------2-------2-------2-------2------------| 
D|-0-0---0-0-0---0-0-0---0-0-0---0-2-2---2-2-2---2-2-2---2-2-2---2----------| 


          Let me know when we get there...         if we get there 


D|--------------------------------------------------------------------------| 
B|--------------------------------------------------------------------------| 
G|-----0-------0-------0-------0-------0-------0-------0-------0------------| 
D|-----0-------0-------0-------0-------0-------0-------0-------0------------| 
A|-----9-------9-------9-------9-------9-------9-------9-------9------------| 
D|-9-9---9-9-9---9-9-9---2-2-9---9-9-9---9-9-9---9-9-9---9-9-9---9----------| 
  

cifra enviadasem correções
enviado porenviada por:abelamin
top 5 | fink
top
Outras músicas do artista letras do(a) Fink
Top cifras »Top artistas »
Petaxxon Comunicação Online
Cifras.com.br - Melhor e mais completo site de cifras e tablaturas do Brasil
Mais de 1 milhão de acordes de músicas cadastradas desde 2003
As informações contidas no nosso site são colaborações de seus usuários e podem conter erros, sendo assim, não nos responsabilizamos sobre nenhuma destas.
close
menos
mais
close
Cor dos acordes:

Cor da letra:

 

save
close
close
 
redimensionar