Cifras e Tablaturas
Flamin' Groovies

Flamin' Groovies

I Can't Hide

Cifras Cancelar Versão de Impressão

Flamin' Groovies - I Can't Hide

Tom: G

  			
INTRO 
e---------------3--3--3--3--2--2--2--2---| 
B---------------3--3--3--3--3--3--3--3---| 
G-2-0-----------0--0--0--0--2--2--2--2---|   x2 
D-----4-2-------0--0--0--0--0--0--0--0---| 
A---------------2--2--2--2---------------| 
E---------------3--3--3--3---------------| 



VERSE 
G         D        G         D          G 
I can't hide the way I feel inside 
          D           G                      D         G 
I just gotta say it's you makes me feel this way 
             D                G                D        G 
So come with me, we'll take a walk down by the sea 
          D                 G             D       G 
From now on you'll be the only girl for me 
B                   A 
We got no time for things gone by 
     G      G     F#   E    G 
For foolish tears we cried 
        D 
I can't hide 



e----3--3--3---3--2----| 
B----3--3--3---3--3----| 
G----0--0--0---0--2----| 
D----0--0--0---0--0----| 
A----2--0--2---2-------| 
E----3--2--0---3-------| 

(You go back up slitghtly with the G but then go back to D immediately.) 

  
          D         G              D        G 
You can't hide the way you feel for me 
        D                G               D      G 
I can read your eyes and I like what I see 
              D                  G                D       G 
It's there so plain, it's just for you my love is free 
         D                  G             D        G 
Hold me close now girl and keep on lovin' me 
  B                  A                G     G F# E  G 
We can't stop now to think about the past 
                 D 
We're moving too fast 

G  D  G 

BRIDGE 
C             F                   C 
Yesterday my life was filled with pain 
 C                          F 
But now it's changed, we'll never be the same 

SOLO 
e----------------------------| 
B--3-----3-----3-----3-------| 
G----5b7---5b7---5b7---5b7---| 
D----------------------------|  x6 (gets a little faster at the end} 
A----------------------------| 
E----------------------------| 

  

B               A 
We're together now 
       G     G   F#   E 
We can never say goodbye 
 G         D  G F# E    G       D     G F# E           G  D  G  D 
I can't hide,        I can't hide,        I can't hide 

OUTRO 
  
G, D, G, D, G, D~ 

  
(These are just some of the outro bits! Thanks!) 

  
e-----------------------| 
e-----------------------| 
G----5-4--0-------------| 
D-----------------------| 
A-----------------------| 
E-----------------------| 


e-----------------------| 
e------4--7-------------| 
G----5------------------| 
D-----------------------| 
A-----------------------| 
E-----------------------| 

e-------------------------------| 
e-------------------------------| 
G----11--11-9-9-9h1-7-----------| 
D-------------------------------| 
A-------------------------------| 
E-------------------------------| 



 
    	
fixar
fixar inscrever-se

enviado porenviado por: paulantunes
cifra enviadaCorrigida por: sem correções
logo top cifrasComente
ico música do artistaMúsicas deste artista
ico curtiuCurtiu?
ico destaqueDestaque
Petaxxon Comunicação Online

Cifras.com.br - Melhor e mais completo site de cifras e tablaturas do Brasil Mais de 1 milhão de acordes de músicas cadastradas desde 2003
As informações contidas no nosso site são colaborações de seus usuários e podem conter erros, sendo assim, não nos responsabilizamos sobre nenhuma destas.

close
menos
mais
close
Cor dos acordes:

Cor da letra:

close
Alinhar acordes a direita Alinhar acordes a esquerda Alinhar acordes em baixo Alinhar acordes no topo
close
  Mostrar todos os acordes Esconder acordes muito fáceis Esconder acordes fáceis Esconder acordes intermediários
redimensionar
glossário