Cifras e Tablaturas
Forever Came Calling

Forever Came Calling

Knott Sky Or Luckie

Cifras Cancelar Versão de Impressão Print

Forever Came Calling - Knott Sky Or Luckie

Tom:

  			Tuning: 
Intro the 11's on the A are palm muted 
e|---------------------------------------------------------------------------| 
B|---------------------------------------------------------------------------| 
G|---------------------------------------------------------------------------| 
D|------11---9---9(x2)--------------222x-2x2--|--444x-4x4-222x-2x2-666x-6x8--| 
A|-11-11--11---------------7p6------222x-2x2--|--444x-4x4-222x-2x2-666x-6x8--| 
E|-----------------------------7----000x-0x0--|--222x-2x2-000x-0x0-444x-4x6--| 
                                              Second time play this in addition 
Verse                     Pre Breakdown bit 
e|---------------------------------------------------------------------------| 
B|---------------------------------------------------------------------------| 
G|-4-------------------------------------------------------------------------| 
D|-4-2--------------------6--4--2~-------------------------------------------| 
A|-2-2--------------------6--4--2~-------------------------------------------| 
E|---0--------------------4--2--0~-------------------------------------------| 
   strummed               PM with accents 

Breakdown bit                2nd verse 

e|-------------------------------------------------------------------------------| 
B|-------------------------------------------------------------------------------| 
G|-------------------------------------------9/119/11----------------------------| 
D|-4/6-4/6---------------2-4-----------------x-x-x-x-----2~----------------------| 
A|-4/6-4/6-*BASS*--------2-4----4/6-4/6------7/9-7/9-----2~----------------------| 
E|-2/4-2/4---------------0-2----2/4-2/4------------------0~----------------------| 
   Slide strums          PM with accent      fill 
Outro 
e|---------------------------------------------------------------------------------| 
B|---------------------------------------------------------------------------------| 
G|-4-------------------------------------------------------------------------------| 
D|-4-2-6-4-------------------------------------------------------------------------| 
A|-2-2-6-4-------------------------------------------------------------------------| 
E|---0-4-2-------------------------------------------------------------------------| 
 
    	
fixar
fixar inscrever-se

enviado porenviado por: tercmoraes
cifra enviadaCorrigida por: sem correções
logo top cifrasComente
ico música do artistaMúsicas deste artista
ico curtiuCurtiu?
ico destaqueDestaque
Petaxxon Comunicação Online

Cifras.com.br - Melhor e mais completo site de cifras e tablaturas do Brasil Mais de 1 milhão de acordes de músicas cadastradas desde 2003
As informações contidas no nosso site são colaborações de seus usuários e podem conter erros, sendo assim, não nos responsabilizamos sobre nenhuma destas.

close
menos
mais
close
Cor dos acordes:

Cor da letra:

close
Alinhar acordes a direita Alinhar acordes a esquerda Alinhar acordes em baixo Alinhar acordes no topo
close
  Mostrar todos os acordes Esconder acordes muito fáceis Esconder acordes fáceis Esconder acordes intermediários
redimensionar
glossário