Cifras e Tablaturas
Frank Gambale

Frank Gambale

6.8 Shaker

Cifras Cancelar Versão de Impressão
cifras

Frank Gambale - 6.8 Shaker

fixar na tela  
Exibindo: vídeo-aula ver clipes redimensionar

Tom:

  E|----------------------------------| 
B|----------------------------------| 
G|-------------------3-1------------| 
D|-------1---3-1---------3----1-3---| 
A|---------3-----3-1--------3-------| 
E|---1-1--------------------------1-| 

E|----------------------| 
B|----------------------| 
G|----------------------| 
D|-----1---3-1----3--1--| 
A|---3---3-----3--------| 
E|----------------------| 

E|----------------------------------| 
B|----------------------------------| 
G|-------------------3-1------------| 
D|-------1---3-1---------3----1-3---| 
A|---------3-----3-1--------3-------| 
E|---1-1--------------------------1-| 

E|---------------------------| 
B|---------------------------| 
G|---------------------------| 
D|-----1----3p1--------3--1--| 
A|---3----3-----3p1----------| 
E|---------------------------| 

E|----------------------------------| 
B|----------------------------------| 
G|-------------------3-1------------| 
D|-------1---3-1---------3----1-3---| 
A|---------3-----3-1--------3-------| 
E|---1-1--------------------------1-| 

E|----------------------| 
B|----------------------| 
G|----------------------| 
D|-----1---3-1----3--1--| 
A|---3---3-----3--------| 
E|----------------------| 

E|----------------------------------| 
B|----------------------------------| 
G|-------------------3-1------------| 
D|-------1---3-1---------3----1-3---| 
A|---------3-----3-1--------3-------| 
E|---1-1--------------------------1-| 

E|---------------------------| 
B|---------------------------| 
G|---------------------------| 
D|-----1----3p1--------3--1--| 
A|---3----3-----3p1----------| 
E|---------------------------| 

E|-----------------6-4---------------------| 
B|-------6-6---4--------6----4-6--6----4-6-| 
G|----8----------5---------5---------5-----| 
D|-----------------------------------------| 
A|-----------------------------------------| 
E|-----------------------------------------| 

E|---8-7-8--8-6-4--6--6-4-------------| 
B|----------------6--------6-----6-4--| 
G|----------------------------5-------| 
D|------------------------------------| 
A|------------------------------------| 
E|------------------------------------| 

E|-----5--------1-------1------------| 
B|-------6----3---4---3----4---------| 
G|---5-----5------------------3-1----| 
D|--------------------------------3--| 
A|-----------------------------------| 
E|-----------------------------------| 

E|------------------4-3-4-3-----------------| 
B|-----6-6----4-----------------6--6-----6--| 
G|---8-----------5----------5-8------5-8----| 
D|------------------------------------------| 
A|------------------------------------------| 
E|------------------------------------------| 

E|---7-4-6-4-6------------------16----15----13-----| 
B|----------------8-9-8-6----------15----15----13--| 
G|------------------------7-5----------------------| 
D|-------------------------------------------------| 
A|-------------------------------------------------| 
E|-------------------------------------------------| 

E|---10-11-10-8------------| 
B|--------------11-9-------| 
G|---------------------8---| 
D|-------------------------| 
A|-------------------------| 
E|-------------------------| 
  

top 5 | frank gambale
top rock'n roll
Outras músicas do artista letras do(a) Frank Gambale
Top cifras »Top artistas »
Petaxxon Comunicação Online
Cifras.com.br - Melhor e mais completo site de cifras e tablaturas do Brasil
Mais de 1 milhão de acordes de músicas cadastradas desde 2003
As informações contidas no nosso site são colaborações de seus usuários e podem conter erros, sendo assim, não nos responsabilizamos sobre nenhuma destas.
close
menos
mais
close
Cor dos acordes:

Cor da letra:

 

save
close
close
 
redimensionar